  0
SECTION
  2
HEADER
  9
$ACADVER
  1
AC1018
  9
$ACADMAINTVER
 70
     2
  9
$DWGCODEPAGE
  3
ANSI_1252
  9
$INSBASE
 10
0.0
 20
0.0
 30
0.0
  9
$EXTMIN
 10
11.89510523882359
 20
7.768161100064617
 30
-11328189.12953852
  9
$EXTMAX
 10
53.89510523880995
 20
37.47304713807796
 30
0.0
  9
$LIMMIN
 10
0.0
 20
0.0
  9
$LIMMAX
 10
12.0
 20
9.0
  9
$ORTHOMODE
 70
     0
  9
$REGENMODE
 70
     1
  9
$FILLMODE
 70
     1
  9
$QTEXTMODE
 70
     0
  9
$MIRRTEXT
 70
     0
  9
$LTSCALE
 40
1.0
  9
$ATTMODE
 70
     1
  9
$TEXTSIZE
 40
0.2
  9
$TRACEWID
 40
0.05
  9
$TEXTSTYLE
  7
Standard
  9
$CLAYER
  8
outline
  9
$CELTYPE
  6
ByLayer
  9
$CECOLOR
 62
   256
  9
$CELTSCALE
 40
1.0
  9
$DISPSILH
 70
     0
  9
$DIMSCALE
 40
1.0
  9
$DIMASZ
 40
0.18
  9
$DIMEXO
 40
0.0625
  9
$DIMDLI
 40
0.38
  9
$DIMRND
 40
0.0
  9
$DIMDLE
 40
0.0
  9
$DIMEXE
 40
0.18
  9
$DIMTP
 40
0.0
  9
$DIMTM
 40
0.0
  9
$DIMTXT
 40
0.18
  9
$DIMCEN
 40
0.09
  9
$DIMTSZ
 40
0.0
  9
$DIMTOL
 70
     0
  9
$DIMLIM
 70
     0
  9
$DIMTIH
 70
     1
  9
$DIMTOH
 70
     1
  9
$DIMSE1
 70
     0
  9
$DIMSE2
 70
     0
  9
$DIMTAD
 70
     0
  9
$DIMZIN
 70
     0
  9
$DIMBLK
  1

  9
$DIMASO
 70
     1
  9
$DIMSHO
 70
     1
  9
$DIMPOST
  1

  9
$DIMAPOST
  1

  9
$DIMALT
 70
     0
  9
$DIMALTD
 70
     2
  9
$DIMALTF
 40
25.4
  9
$DIMLFAC
 40
1.0
  9
$DIMTOFL
 70
     0
  9
$DIMTVP
 40
0.0
  9
$DIMTIX
 70
     0
  9
$DIMSOXD
 70
     0
  9
$DIMSAH
 70
     0
  9
$DIMBLK1
  1

  9
$DIMBLK2
  1

  9
$DIMSTYLE
  2
Standard
  9
$DIMCLRD
 70
     0
  9
$DIMCLRE
 70
     0
  9
$DIMCLRT
 70
     0
  9
$DIMTFAC
 40
1.0
  9
$DIMGAP
 40
0.09
  9
$DIMJUST
 70
     0
  9
$DIMSD1
 70
     0
  9
$DIMSD2
 70
     0
  9
$DIMTOLJ
 70
     1
  9
$DIMTZIN
 70
     0
  9
$DIMALTZ
 70
     0
  9
$DIMALTTZ
 70
     0
  9
$DIMUPT
 70
     0
  9
$DIMDEC
 70
     4
  9
$DIMTDEC
 70
     4
  9
$DIMALTU
 70
     2
  9
$DIMALTTD
 70
     2
  9
$DIMTXSTY
  7
Standard
  9
$DIMAUNIT
 70
     0
  9
$DIMADEC
 70
     0
  9
$DIMALTRND
 40
0.0
  9
$DIMAZIN
 70
     0
  9
$DIMDSEP
 70
    46
  9
$DIMATFIT
 70
     3
  9
$DIMFRAC
 70
     0
  9
$DIMLDRBLK
  1

  9
$DIMLUNIT
 70
     2
  9
$DIMLWD
 70
    -2
  9
$DIMLWE
 70
    -2
  9
$DIMTMOVE
 70
     0
  9
$LUNITS
 70
     2
  9
$LUPREC
 70
     4
  9
$SKETCHINC
 40
0.1
  9
$FILLETRAD
 40
0.0
  9
$AUNITS
 70
     0
  9
$AUPREC
 70
     0
  9
$MENU
  1
.
  9
$ELEVATION
 40
0.0
  9
$PELEVATION
 40
0.0
  9
$THICKNESS
 40
0.0
  9
$LIMCHECK
 70
     0
  9
$CHAMFERA
 40
0.0
  9
$CHAMFERB
 40
0.0
  9
$CHAMFERC
 40
0.0
  9
$CHAMFERD
 40
0.0
  9
$SKPOLY
 70
     0
  9
$TDCREATE
 40
2455033.412172987
  9
$TDUCREATE
 40
2455033.412172987
  9
$TDUPDATE
 40
2455147.707857141
  9
$TDUUPDATE
 40
2455147.707857141
  9
$TDINDWG
 40
0.0507961806
  9
$TDUSRTIMER
 40
0.0507961806
  9
$USRTIMER
 70
     1
  9
$ANGBASE
 50
0.0
  9
$ANGDIR
 70
     0
  9
$PDMODE
 70
     0
  9
$PDSIZE
 40
0.0
  9
$PLINEWID
 40
0.0
  9
$SPLFRAME
 70
     0
  9
$SPLINETYPE
 70
     6
  9
$SPLINESEGS
 70
     8
  9
$HANDSEED
  5
296
  9
$SURFTAB1
 70
     6
  9
$SURFTAB2
 70
     6
  9
$SURFTYPE
 70
     6
  9
$SURFU
 70
     6
  9
$SURFV
 70
     6
  9
$UCSBASE
  2

  9
$UCSNAME
  2

  9
$UCSORG
 10
0.0
 20
0.0
 30
0.0
  9
$UCSXDIR
 10
1.0
 20
0.0
 30
0.0
  9
$UCSYDIR
 10
0.0
 20
1.0
 30
0.0
  9
$UCSORTHOREF
  2

  9
$UCSORTHOVIEW
 70
     0
  9
$UCSORGTOP
 10
0.0
 20
0.0
 30
0.0
  9
$UCSORGBOTTOM
 10
0.0
 20
0.0
 30
0.0
  9
$UCSORGLEFT
 10
0.0
 20
0.0
 30
0.0
  9
$UCSORGRIGHT
 10
0.0
 20
0.0
 30
0.0
  9
$UCSORGFRONT
 10
0.0
 20
0.0
 30
0.0
  9
$UCSORGBACK
 10
0.0
 20
0.0
 30
0.0
  9
$PUCSBASE
  2

  9
$PUCSNAME
  2

  9
$PUCSORG
 10
0.0
 20
0.0
 30
0.0
  9
$PUCSXDIR
 10
1.0
 20
0.0
 30
0.0
  9
$PUCSYDIR
 10
0.0
 20
1.0
 30
0.0
  9
$PUCSORTHOREF
  2

  9
$PUCSORTHOVIEW
 70
     0
  9
$PUCSORGTOP
 10
0.0
 20
0.0
 30
0.0
  9
$PUCSORGBOTTOM
 10
0.0
 20
0.0
 30
0.0
  9
$PUCSORGLEFT
 10
0.0
 20
0.0
 30
0.0
  9
$PUCSORGRIGHT
 10
0.0
 20
0.0
 30
0.0
  9
$PUCSORGFRONT
 10
0.0
 20
0.0
 30
0.0
  9
$PUCSORGBACK
 10
0.0
 20
0.0
 30
0.0
  9
$USERI1
 70
     0
  9
$USERI2
 70
     0
  9
$USERI3
 70
     0
  9
$USERI4
 70
     0
  9
$USERI5
 70
     0
  9
$USERR1
 40
0.0
  9
$USERR2
 40
0.0
  9
$USERR3
 40
0.0
  9
$USERR4
 40
0.0
  9
$USERR5
 40
0.0
  9
$WORLDVIEW
 70
     1
  9
$SHADEDGE
 70
     3
  9
$SHADEDIF
 70
    70
  9
$TILEMODE
 70
     1
  9
$MAXACTVP
 70
    64
  9
$PINSBASE
 10
0.0
 20
0.0
 30
0.0
  9
$PLIMCHECK
 70
     0
  9
$PEXTMIN
 10
0.0
 20
0.0
 30
0.0
  9
$PEXTMAX
 10
0.0
 20
0.0
 30
0.0
  9
$PLIMMIN
 10
0.0
 20
0.0
  9
$PLIMMAX
 10
12.0
 20
9.0
  9
$UNITMODE
 70
     0
  9
$VISRETAIN
 70
     1
  9
$PLINEGEN
 70
     0
  9
$PSLTSCALE
 70
     1
  9
$TREEDEPTH
 70
  3020
  9
$CMLSTYLE
  2
Standard
  9
$CMLJUST
 70
     0
  9
$CMLSCALE
 40
1.0
  9
$PROXYGRAPHICS
 70
     1
  9
$MEASUREMENT
 70
     0
  9
$CELWEIGHT
370
    -1
  9
$ENDCAPS
280
     0
  9
$JOINSTYLE
280
     0
  9
$LWDISPLAY
290
     0
  9
$INSUNITS
 70
     1
  9
$HYPERLINKBASE
  1

  9
$STYLESHEET
  1

  9
$XEDIT
290
     1
  9
$CEPSNTYPE
380
     0
  9
$PSTYLEMODE
290
     1
  9
$FINGERPRINTGUID
  2
{FDEAD576-A652-11D2-9A35-0060089B3A3F}
  9
$VERSIONGUID
  2
{AE39E218-494C-4FA5-AC89-736058E2FD21}
  9
$EXTNAMES
290
     1
  9
$PSVPSCALE
 40
0.0
  9
$OLESTARTUP
290
     0
  9
$SORTENTS
280
   127
  9
$INDEXCTL
280
     0
  9
$HIDETEXT
280
     1
  9
$XCLIPFRAME
290
     0
  9
$HALOGAP
280
     0
  9
$OBSCOLOR
 70
   257
  9
$OBSLTYPE
280
     0
  9
$INTERSECTIONDISPLAY
280
     0
  9
$INTERSECTIONCOLOR
 70
   257
  9
$DIMASSOC
280
     2
  9
$PROJECTNAME
  1

  0
ENDSEC
  0
SECTION
  2
CLASSES
  0
CLASS
  1
ACDBDICTIONARYWDFLT
  2
AcDbDictionaryWithDefault
  3
ObjectDBX Classes
 90
        0
 91
        1
280
     0
281
     0
  0
CLASS
  1
DICTIONARYVAR
  2
AcDbDictionaryVar
  3
ObjectDBX Classes
 90
        0
 91
        2
280
     0
281
     0
  0
CLASS
  1
SORTENTSTABLE
  2
AcDbSortentsTable
  3
ObjectDBX Classes
 90
        0
 91
        1
280
     0
281
     0
  0
CLASS
  1
RASTERVARIABLES
  2
AcDbRasterVariables
  3
ISM
 90
        0
 91
        1
280
     0
281
     0
  0
CLASS
  1
CYCURRENTVIEW
  2
CyCurrentView
  3
CloudWorx
 90
        0
 91
        1
280
     0
281
     0
  0
CLASS
  1
CYPREFERENCE
  2
CyPreferences
  3
CloudWorx
 90
        0
 91
        1
280
     0
281
     0
  0
CLASS
  1
CYPOINTCONTROL
  2
CyPointControl
  3
CloudWorx
 90
        0
 91
        1
280
     0
281
     0
  0
CLASS
  1
CYEXTVIEWREFS
  2
CyExtViewRefs
  3
CloudWorx
 90
        0
 91
        0
280
     0
281
     0
  0
CLASS
  1
CYCUTPLANES
  2
CyCutPlanes
  3
CloudWorx
 90
        0
 91
        0
280
     0
281
     0
  0
CLASS
  1
CYLIMITBOX
  2
CyLimitBox
  3
CloudWorx
 90
        0
 91
        0
280
     0
281
     0
  0
CLASS
  1
CYHIDERGNS
  2
CyHideRgns
  3
CloudWorx
 90
        0
 91
        0
280
     0
281
     0
  0
CLASS
  1
CYINTENSITYMAPPING
  2
CyIntensityMapping
  3
CloudWorx
 90
        0
 91
        0
280
     0
281
     0
  0
CLASS
  1
CYSCANWORLDS
  2
CyScanWorlds
  3
CloudWorx
 90
        0
 91
        0
280
     0
281
     0
  0
CLASS
  1
CYVIEWATTRIBUTE
  2
CyViewAttributes
  3
CloudWorx
 90
        0
 91
        0
280
     0
281
     0
  0
CLASS
  1
CYLAYERS
  2
CyLayers
  3
CloudWorx
 90
        0
 91
        0
280
     0
281
     0
  0
CLASS
  1
CYPOINTCLOUDS
  2
CyPointClouds
  3
CloudWorx
 90
        0
 91
        0
280
     0
281
     0
  0
CLASS
  1
CYPOINTBLOCKS
  2
CyPointBlocks
  3
CloudWorx
 90
        0
 91
        0
280
     0
281
     0
  0
CLASS
  1
CYPOINTVIEWMGRS
  2
CyPointViewMgrs
  3
CloudWorx
 90
        0
 91
        0
280
     0
281
     0
  0
CLASS
  1
CYLODMANAGER
  2
CyLodManager
  3
CloudWorx
 90
        0
 91
        0
280
     0
281
     0
  0
CLASS
  1
CYPOINTVIEWMGR
  2
CyPointViewMgr
  3
CloudWorx
 90
        0
 91
        0
280
     0
281
     0
  0
CLASS
  1
CYCLOUDEXTENT
  2
CyCloudExtent
  3
CloudWorx
 90
        0
 91
        0
280
     0
281
     1
  0
CLASS
  1
CYINTERFERENCETOOLS
  2
CyInterferenceTools
  3
CloudWorx
 90
        0
 91
        0
280
     0
281
     0
  0
CLASS
  1
CYPOINTBLOCK
  2
CyPointBlock
  3
CloudWorx
 90
        0
 91
        0
280
     0
281
     0
  0
CLASS
  1
CYPOINTBLOCKENT
  2
CyPointBlockEnt
  3
CloudWorx
 90
        0
 91
        0
280
     0
281
     1
  0
ENDSEC
  0
SECTION
  2
TABLES
  0
TABLE
  2
VPORT
  5
8
330
0
100
AcDbSymbolTable
 70
     2
  0
VPORT
  5
295
330
8
100
AcDbSymbolTableRecord
100
AcDbViewportTableRecord
  2
*Active
 70
     0
 10
0.0
 20
0.0
 11
1.0
 21
1.0
 12
34.36943212669504
 22
21.88058542831993
 13
0.0
 23
0.0
 14
0.5
 24
0.5
 15
0.5
 25
0.5
 16
0.0
 26
0.0
 36
1.0
 17
0.0
 27
0.0
 37
0.0
 40
32.79551881649609
 41
1.747826086956521
 42
50.0
 43
0.0
 44
0.0
 50
0.0
 51
0.0
 71
     0
 72
  1000
 73
     1
 74
     3
 75
     0
 76
     0
 77
     0
 78
     0
281
     0
 65
     1
110
0.0
120
0.0
130
0.0
111
1.0
121
0.0
131
0.0
112
0.0
122
1.0
132
0.0
 79
     0
146
0.0
  0
ENDTAB
  0
TABLE
  2
LTYPE
  5
5
330
0
100
AcDbSymbolTable
 70
     2
  0
LTYPE
  5
14
330
5
100
AcDbSymbolTableRecord
100
AcDbLinetypeTableRecord
  2
ByBlock
 70
     0
  3

 72
    65
 73
     0
 40
0.0
  0
LTYPE
  5
15
330
5
100
AcDbSymbolTableRecord
100
AcDbLinetypeTableRecord
  2
ByLayer
 70
     0
  3

 72
    65
 73
     0
 40
0.0
  0
LTYPE
  5
16
330
5
100
AcDbSymbolTableRecord
100
AcDbLinetypeTableRecord
  2
Continuous
 70
     0
  3
Solid line
 72
    65
 73
     0
 40
0.0
  0
LTYPE
  5
89
330
5
100
AcDbSymbolTableRecord
100
AcDbLinetypeTableRecord
  2
DASHED2
 70
     0
  3
Dashed (.5x) _ _ _ _ _ _ _ _ _ _ _ _ _ _ _ _ _
 72
    65
 73
     2
 40
0.375
 49
0.25
 74
     0
 49
-0.125
 74
     0
  0
ENDTAB
  0
TABLE
  2
LAYER
  5
2
102
{ACAD_XDICTIONARY
360
120
102
}
330
0
100
AcDbSymbolTable
 70
     5
  0
LAYER
  5
10
330
2
100
AcDbSymbolTableRecord
100
AcDbLayerTableRecord
  2
0
 70
     0
 62
     7
  6
Continuous
370
    -3
390
F
  0
LAYER
  5
8A
330
2
100
AcDbSymbolTableRecord
100
AcDbLayerTableRecord
  2
outline
 70
     0
 62
     7
  6
Continuous
370
    30
390
F
1001
AcAecLayerStandard
1000

1000

  0
LAYER
  5
8B
330
2
100
AcDbSymbolTableRecord
100
AcDbLayerTableRecord
  2
thin line
 70
     0
 62
     7
  6
Continuous
370
     9
390
F
1001
AcAecLayerStandard
1000

1000

  0
LAYER
  5
8C
330
2
100
AcDbSymbolTableRecord
100
AcDbLayerTableRecord
  2
stonework
 70
     0
 62
   253
  6
Continuous
370
     9
390
F
1001
AcAecLayerStandard
1000

1000

  0
LAYER
  5
11D
330
2
100
AcDbSymbolTableRecord
100
AcDbLayerTableRecord
  2
brick
 70
     0
 62
    32
  6
Continuous
370
     9
390
F
1001
AcAecLayerStandard
1000

1000

  0
ENDTAB
  0
TABLE
  2
STYLE
  5
3
330
0
100
AcDbSymbolTable
 70
     3
  0
STYLE
  5
11
330
3
100
AcDbSymbolTableRecord
100
AcDbTextStyleTableRecord
  2
Standard
 70
     0
 40
0.0
 41
1.0
 50
0.0
 71
     0
 42
0.2
  3
txt
  4

  0
ENDTAB
  0
TABLE
  2
VIEW
  5
6
330
0
100
AcDbSymbolTable
 70
     0
  0
ENDTAB
  0
TABLE
  2
UCS
  5
7
330
0
100
AcDbSymbolTable
 70
     0
  0
ENDTAB
  0
TABLE
  2
APPID
  5
9
330
0
100
AcDbSymbolTable
 70
     6
  0
APPID
  5
12
330
9
100
AcDbSymbolTableRecord
100
AcDbRegAppTableRecord
  2
ACAD
 70
     0
  0
APPID
  5
8D
330
9
100
AcDbSymbolTableRecord
100
AcDbRegAppTableRecord
  2
ADE
 70
     0
  0
APPID
  5
8E
330
9
100
AcDbSymbolTableRecord
100
AcDbRegAppTableRecord
  2
AcAecLayerStandard
 70
     0
  0
APPID
  5
11F
330
9
100
AcDbSymbolTableRecord
100
AcDbRegAppTableRecord
  2
ACAD_PSEXT
 70
     0
  0
APPID
  5
16D
330
9
100
AcDbSymbolTableRecord
100
AcDbRegAppTableRecord
  2
DCO15
 70
     0
  0
APPID
  5
175
330
9
100
AcDbSymbolTableRecord
100
AcDbRegAppTableRecord
  2
RAK
 70
     0
  0
ENDTAB
  0
TABLE
  2
DIMSTYLE
  5
A
330
0
100
AcDbSymbolTable
 70
     3
100
AcDbDimStyleTable
 71
     0
  0
DIMSTYLE
105
27
330
A
100
AcDbSymbolTableRecord
100
AcDbDimStyleTableRecord
  2
Standard
 70
     0
340
11
  0
DIMSTYLE
105
11E
330
A
100
AcDbSymbolTableRecord
100
AcDbDimStyleTableRecord
  2
ISO-25
 70
     0
 41
2.5
 42
0.625
 43
3.75
 44
1.25
 73
     0
 74
     0
 77
     1
 78
     8
140
2.5
141
2.5
143
0.03937007874016
147
0.625
171
     3
172
     1
271
     2
272
     2
274
     3
278
    44
283
     0
284
     8
340
11
  0
ENDTAB
  0
TABLE
  2
BLOCK_RECORD
  5
1
330
0
100
AcDbSymbolTable
 70
     3
  0
BLOCK_RECORD
  5
1F
102
{ACAD_XDICTIONARY
360
27A
102
}
330
1
100
AcDbSymbolTableRecord
100
AcDbBlockTableRecord
  2
*Model_Space
340
22
  0
BLOCK_RECORD
  5
58
330
1
100
AcDbSymbolTableRecord
100
AcDbBlockTableRecord
  2
*Paper_Space
340
59
  0
BLOCK_RECORD
  5
5D
330
1
100
AcDbSymbolTableRecord
100
AcDbBlockTableRecord
  2
*Paper_Space0
340
5E
  0
BLOCK_RECORD
  5
119
330
1
100
AcDbSymbolTableRecord
100
AcDbBlockTableRecord
  2
Logos block for Autocad drawings
340
0
  0
BLOCK_RECORD
  5
172
330
1
100
AcDbSymbolTableRecord
100
AcDbBlockTableRecord
  2
Logos for Lou
340
0
102
{BLKREFS
331
177
102
}
  0
ENDTAB
  0
ENDSEC
  0
SECTION
  2
BLOCKS
  0
BLOCK
  5
20
330
1F
100
AcDbEntity
  8
0
100
AcDbBlockBegin
  2
*Model_Space
 70
     0
 10
0.0
 20
0.0
 30
0.0
  3
*Model_Space
  1

  0
ENDBLK
  5
21
330
1F
100
AcDbEntity
  8
0
100
AcDbBlockEnd
  0
BLOCK
  5
5A
330
58
100
AcDbEntity
 67
     1
  8
0
100
AcDbBlockBegin
  2
*Paper_Space
 70
     0
 10
0.0
 20
0.0
 30
0.0
  3
*Paper_Space
  1

  0
ENDBLK
  5
5B
330
58
100
AcDbEntity
 67
     1
  8
0
100
AcDbBlockEnd
  0
BLOCK
  5
5F
330
5D
100
AcDbEntity
  8
0
100
AcDbBlockBegin
  2
*Paper_Space0
 70
     0
 10
0.0
 20
0.0
 30
0.0
  3
*Paper_Space0
  1

  0
ENDBLK
  5
60
330
5D
100
AcDbEntity
  8
0
100
AcDbBlockEnd
  0
BLOCK
  5
11A
330
119
100
AcDbEntity
  8
0
100
AcDbBlockBegin
  2
Logos block for Autocad drawings
 70
     0
 10
267921.7236478792
 20
282888.3476303421
 30
1.324000000000012
  3
Logos block for Autocad drawings
  1
\\RCAHMW_DC2\datadisk\Share\All\SURVEY BRANCH\Templates\LOGOS\Logos block for Autocad drawings.dwg
  0
TEXT
  5
11C
330
119
100
AcDbEntity
  8
0
100
AcDbText
 10
267921.7236478792
 20
282888.3476303421
 30
1.324000000000012
 40
0.2
  1
Xref Logos block for Autocad drawings
100
AcDbText
  0
ENDBLK
  5
11B
330
119
100
AcDbEntity
  8
0
100
AcDbBlockEnd
  0
BLOCK
  5
173
330
172
100
AcDbEntity
  8
0
100
AcDbBlockBegin
  2
Logos for Lou
 70
    36
 10
6.338592999044941
 20
8.453584551519433
 30
0.0
  3
Logos for Lou
  1
\\RCAHMW_DC2\datadisk\Share\All\SURVEY BRANCH\Templates\LOGOS\Logos for Lou.dwg
  0
ENDBLK
  5
174
330
172
100
AcDbEntity
  8
0
100
AcDbBlockEnd
  0
ENDSEC
  0
SECTION
  2
ENTITIES
  0
LWPOLYLINE
  5
D8
102
{ACAD_REACTORS
330
279
330
28A
102
}
330
1F
100
AcDbEntity
  8
outline
100
AcDbPolyline
 90
       12
 70
     1
 43
0.0
 10
18.83134009800869
 20
27.92236716562161
 10
18.83326424263669
 20
27.9242802521328
 10
18.83306761471363
 20
27.92695016303298
 10
18.5563699950701
 20
28.50147166830686
 10
18.55260597484926
 20
28.50233360828099
 10
18.54280266853789
 20
28.49714795296291
 42
0.5767162890077584
 10
18.39524745855056
 20
21.82408610434629
 10
18.41998044204706
 20
21.81857809779581
 10
18.43683426386019
 20
21.82605525181975
 10
18.7027454375177
 20
22.39473238383744
 10
18.69899546216493
 20
22.40782265813414
 10
18.68589161570458
 20
22.41904890054241
 42
-0.5606226884836595
  0
LWPOLYLINE
  5
D9
102
{ACAD_REACTORS
330
279
102
}
330
1F
100
AcDbEntity
  8
outline
100
AcDbPolyline
 90
       26
 70
     1
 43
0.0
 10
19.38453870931425
 20
28.83514052798228
 10
19.37135059376032
 20
28.80085213651137
 10
19.59310475429538
 20
28.23647769709316
 10
19.61422821094766
 20
28.22856606991241
 10
19.66703685263633
 20
28.24174744338939
 42
-0.1551968024411694
 10
21.29330425407943
 20
28.19427767844138
 10
21.3883457642628
 20
28.18373117764691
 10
21.43059267762556
 20
28.18900793214539
 10
21.47283959098832
 20
28.19955443293998
 10
21.4939490027723
 20
28.20746606012074
 10
21.53091505194288
 20
28.29449396283564
 10
21.47812045512228
 20
28.32350559980807
 10
21.40154792468502
 20
28.37625211832312
 10
21.36987678451646
 20
28.39998700079707
 10
21.34083203157616
 20
28.44482189213124
 10
21.35931505619055
 20
28.52393816766528
 10
21.39890749258893
 20
28.60305444226788
 10
21.41475008510724
 20
28.66635446978
 10
21.40418835678111
 20
28.74019398988412
 10
21.43587354175952
 20
28.84041027427839
 10
21.44379483804778
 20
28.87733353843169
 10
21.39890749258893
 20
28.9142568025851
 10
21.30386598240557
 20
28.95644981303451
 10
21.18243419624605
 20
28.98282657639299
 10
21.08737864119439
 20
28.99601495807235
 10
20.95274469461265
 20
29.00392658618466
 42
0.0831477154990647
  0
LWPOLYLINE
  5
DA
102
{ACAD_REACTORS
330
279
102
}
330
1F
100
AcDbEntity
  8
outline
100
AcDbPolyline
 90
       32
 70
     1
 43
0.0
 10
22.50522044622289
 20
27.61241216567567
 10
22.50522044622289
 20
27.65972075407615
 10
22.52888602100938
 20
27.71017577481678
 10
22.54940554908194
 20
27.72278952953627
 10
22.58887158178186
 20
27.72278952953627
 10
22.70409554360595
 20
27.69913873897156
 10
22.74197450816791
 20
27.69283186161181
 10
22.77038724273371
 20
27.70071545877704
 10
22.79090677080626
 20
27.71805937198212
 10
22.7972269539714
 20
27.743286881421
 10
22.7972269539714
 20
27.81582298112323
 10
22.80196006894062
 20
27.88519863394299
 10
22.81467065955462
 20
27.94390164857009
 10
22.87149612880262
 20
28.02905150299171
 10
22.8951757484574
 20
28.02905150299171
 42
-0.0706224395211362
 10
23.41448413308171
 20
27.78306926396886
 10
23.36435805803558
 20
27.63569855858793
 10
23.36119796645289
 20
27.60888732114086
 10
23.36909117300456
 20
27.5946968475472
 10
23.37698437955623
 20
27.58681325038185
 10
23.46222258337002
 20
27.60100372490683
 42
-0.0610056732476016
 10
24.10592621787123
 20
26.47428005357517
 10
24.10613689066281
 20
26.43525449727895
 10
24.09478865064353
 20
26.414294640359
 10
24.08004155657159
 20
26.39730811753555
 10
24.07096858248019
 20
26.38711199891998
 10
24.06247144729036
 20
26.38144281675363
 10
23.45886586386405
 20
26.25368650053883
 10
23.43500366115404
 20
26.25448537134821
 10
23.41909084441068
 20
26.26084130239917
 10
23.40237747110586
 20
26.272761300963
 10
23.38327647304323
 20
26.30058163852675
 42
0.1129094243614907
  0
LWPOLYLINE
  5
DB
102
{ACAD_REACTORS
330
279
102
}
330
1F
100
AcDbEntity
  8
outline
100
AcDbPolyline
 90
       35
 70
     1
 43
0.0
 10
23.63854164928125
 20
25.42952476796961
 10
23.64570452355474
 20
25.44738724624063
 10
23.65642074525727
 20
25.46286011935479
 10
23.66595719942052
 20
25.47119921242154
 10
24.21540583543151
 20
25.64740636368538
 10
24.24519496546031
 20
25.64383246639079
 10
24.27975934506299
 20
25.63669167907244
 10
24.29048961157582
 20
25.62954388448293
 42
-0.2705737166211906
 10
22.36810056086347
 20
21.61430534237422
 10
22.35880286917041
 20
21.61359056254275
 10
22.34950517747734
 20
21.62145313696362
 10
22.30230043154393
 20
21.70860016887423
 10
22.29157016497288
 20
21.71217406616893
 10
22.27583993128451
 20
21.71217406616893
 10
22.25510973047881
 20
21.71217406616893
 10
22.23579805962458
 20
21.71217406616893
 10
22.21505381395059
 20
21.70860016887423
 10
22.18930960115927
 20
21.7036037210504
 10
22.16643053800749
 20
21.69931504392412
 10
22.15856542119241
 20
21.70217416138746
 10
22.15426769661667
 20
21.7114592872689
 10
21.90778055258511
 20
22.28256106266156
 10
21.9152805032902
 20
22.30952646845356
 10
21.93629160117075
 20
22.32151654252198
 42
0.0266213435957873
 10
22.64467177686697
 20
22.83495944255355
 10
22.70476969646939
 20
22.81461625901375
 10
22.83922105999591
 20
22.76702736393884
 10
22.86674896896511
 20
22.7702018262944
 10
22.93238056009796
 20
22.79875095823184
 10
22.9821414689759
 20
22.83470716775719
 10
22.98531560542688
 20
22.89075428602609
 10
22.96413596935963
 20
23.01660452300064
 10
22.95673433261641
 20
23.04726996348575
 10
22.9397962417097
 20
23.06947717984519
 10
22.92285815074501
 20
23.08640063443545
 42
0.1773046903160623
  0
LWPOLYLINE
  5
DC
102
{ACAD_REACTORS
330
279
102
}
330
1F
100
AcDbEntity
  8
outline
100
AcDbPolyline
 90
       22
 70
     1
 43
0.0
 10
19.42851313943993
 20
22.0236497249582
 10
19.40099927528081
 20
22.01580116601076
 10
19.28701126041142
 20
21.92549368721779
 10
19.2241324602046
 20
21.89800971635964
 10
19.22806501867035
 20
21.81948208419021
 10
19.28701126041142
 20
21.74881001730808
 10
19.30667405256554
 20
21.70169764181014
 10
19.302741494158
 20
21.65065397956766
 10
19.22019990179706
 20
21.50537855998971
 10
19.12194212061604
 20
21.27765823510845
 10
19.13765830943612
 20
21.26587838941611
 42
0.162278291358925
 10
21.00854488969753
 20
21.04600662348218
 10
21.01639596164432
 20
21.21483472717364
 10
21.02426107851761
 20
21.26980266888995
 10
21.11858630129109
 20
21.30906648544021
 10
21.15789784067283
 20
21.33655045629848
 10
21.15789784067283
 20
21.37973855139114
 10
21.15003272379954
 20
21.43863777985223
 10
21.138249093387
 20
21.46219046396561
 10
20.90564129438712
 20
21.92711831891324
 10
20.87490812754231
 20
21.94512209185734
 10
20.83952914656811
 20
21.96083322429434
 42
-0.0783856514575093
  0
LWPOLYLINE
  5
DD
330
1F
100
AcDbEntity
  8
outline
100
AcDbPolyline
 90
        6
 70
     0
 43
0.0
 10
18.16905512493145
 20
27.41142599360308
 10
18.05485643727047
 20
27.45135553629348
 10
17.72365074891195
 20
27.62818636727729
 10
17.68367910153506
 20
27.55403150228074
 10
17.68367910153506
 20
27.5312146207433
 10
17.91780677625252
 20
27.16043329128286
  0
LWPOLYLINE
  5
DE
330
1F
100
AcDbEntity
  8
outline
100
AcDbPolyline
 90
       14
 70
     0
 43
0.0
 10
17.51236000279959
 20
26.54435647075309
 10
17.37531034172343
 20
26.58999724109901
 10
17.30108330149733
 20
26.58999724109901
 10
17.27253011836501
 20
26.49872270767821
 10
17.19258682355348
 20
26.43597628438158
 10
17.13548045728885
 20
26.3903425213066
 10
17.11262948387366
 20
26.31618765724136
 10
17.10121101962932
 20
26.24202578497364
 10
17.04410465336468
 20
26.23632156458939
 10
17.01555147023237
 20
26.23632156458939
 10
16.98701233196834
 20
26.22491312382056
 10
16.86708334491186
 20
26.03667385206802
 10
16.90705499228875
 20
25.96821620018477
 10
17.27253011836501
 20
25.79708959051663
  0
LWPOLYLINE
  5
DF
102
{ACAD_REACTORS
330
279
102
}
330
1F
100
AcDbEntity
  8
outline
100
AcDbPolyline
 90
        7
 70
     0
 43
0.0
 10
23.5621236121624
 20
24.44958315958559
 10
23.87268336880857
 20
24.30301132594525
 10
23.92966333137497
 20
24.27454628498594
 10
23.92681222654573
 20
24.26458842662464
 10
23.81570340624216
 20
24.0169734068337
 10
23.80288045679822
 20
24.01555085537325
 10
23.48805106531267
 20
24.18205242214083
  0
HATCH
  5
E0
330
1F
100
AcDbEntity
  8
stonework
100
AcDbHatch
 10
0.0
 20
0.0
 30
0.0
210
0.0
220
0.0
230
1.0
  2
SOLID
 70
     1
 71
     1
 91
        2
 92
        1
 93
       12
 72
     1
 10
36.0761467515556
 20
24.45111082569986
 11
36.1061325095659
 21
24.463093892497
 72
     2
 10
38.49063671568262
 20
25.15324924160708
 40
2.482372799338084
 50
163.8577867033258
 51
334.8209664106179
 73
     0
 72
     1
 10
40.73714139862523
 20
26.20937017427082
 11
40.819261645403
 21
26.22363773250277
 72
     1
 10
40.819261645403
 20
26.22363773250277
 11
40.89244936665591
 21
26.23433840164228
 72
     1
 10
40.89244936665591
 20
26.23433840164228
 11
40.91744920230076
 21
26.22363773250277
 72
     1
 10
40.91744920230076
 20
26.22363773250277
 11
40.95493491101615
 21
26.19866950513108
 72
     1
 10
40.95493491101615
 20
26.19866950513108
 11
41.01563675925672
 21
26.19688956422044
 72
     1
 10
41.01563675925672
 20
26.19688956422044
 11
41.08882448045142
 21
26.22542468161566
 72
     1
 10
41.08882448045142
 20
26.22542468161566
 11
41.11560801233212
 21
26.25930662901396
 72
     1
 10
41.11560801233212
 20
26.25930662901396
 11
41.2423487523622
 21
26.30923607648595
 72
     2
 10
38.35739690422144
 20
25.11934287140209
 40
3.120703927897602
 50
22.41361122652512
 51
196.3993119034175
 73
     1
 72
     1
 10
35.36365143433864
 20
24.23827473149936
 11
36.0761467515556
 21
24.45111082569986
 97
        1
330
E1
 92
        1
 93
       19
 72
     1
 10
35.73823704032179
 20
23.4314734924709
 11
36.36327030413736
 21
23.8092333076645
 72
     1
 10
36.36327030413736
 20
23.8092333076645
 11
36.39741010157786
 21
23.80136458837728
 72
     1
 10
36.39741010157786
 20
23.80136458837728
 11
36.40529069697413
 21
23.80136458837728
 72
     2
 10
38.44232231017699
 20
25.23400867903323
 40
2.490374848025732
 50
215.118715685734
 51
366.3764950061608
 73
     1
 72
     1
 10
40.9172906148301
 20
25.51059279759682
 11
41.00066051047133
 21
25.52615107951022
 72
     1
 10
41.00066051047133
 20
25.52615107951022
 11
41.02355581332767
 21
25.53163891081965
 72
     1
 10
41.02355581332767
 20
25.53163891081965
 11
41.03455462984811
 21
25.53438753989792
 72
     1
 10
41.03455462984811
 20
25.53438753989792
 11
41.0455439972859
 21
25.54353863914764
 72
     1
 10
41.0455439972859
 20
25.54353863914764
 11
41.08873608536623
 21
25.66842921619559
 72
     1
 10
41.08873608536623
 20
25.66842921619559
 11
41.1033917249581
 21
25.68398749904031
 72
     1
 10
41.1033917249581
 20
25.68398749904031
 11
41.11804736455042
 21
25.68856069148785
 72
     1
 10
41.11804736455042
 20
25.68856069148785
 11
41.16935627683346
 21
25.69130460621125
 72
     1
 10
41.16935627683346
 20
25.69130460621125
 11
41.24814333222412
 21
25.69222395942802
 72
     1
 10
41.24814333222412
 20
25.69222395942802
 11
41.26554867598975
 21
25.54396767058688
 72
     1
 10
41.26554867598975
 20
25.54396767058688
 11
41.42770562702162
 21
25.55312348419136
 72
     1
 10
41.42770562702162
 20
25.55312348419136
 11
41.43961156243972
 21
25.54946021625096
 72
     2
 10
38.34115565799474
 20
25.12800632719673
 40
3.126987747399877
 50
352.2541295474991
 51
506.527860719839
 73
     0
 72
     1
 10
35.73276597951258
 20
23.4033742917826
 11
35.73514716661953
 21
23.42558020429067
 72
     1
 10
35.73514716661953
 20
23.42558020429067
 11
35.73823704032179
 21
23.4314734924709
 97
        1
330
E2
 75
     0
 76
     1
 98
        1
 10
-410678.5737479333
 20
-5916299.791232041
450
        0
451
        0
460
0.0
461
0.0
452
        1
462
1.0
453
        2
463
0.0
 63
     5
421
      255
463
1.0
 63
     7
421
 16777215
470
LINEAR
1001
ACAD
1010
0.0
1020
0.0
1030
0.0
  0
LWPOLYLINE
  5
E1
102
{ACAD_REACTORS
330
E0
102
}
330
1F
100
AcDbEntity
  8
outline
100
AcDbPolyline
 90
       12
 70
     1
 43
0.0
 10
36.0761467515556
 20
24.45111082569986
 10
36.1061325095659
 20
24.463093892497
 42
-0.9240925944441135
 10
40.73714139862523
 20
26.20937017427082
 10
40.819261645403
 20
26.22363773250277
 10
40.89244936665591
 20
26.23433840164228
 10
40.91744920230076
 20
26.22363773250277
 10
40.95493491101615
 20
26.19866950513108
 10
41.01563675925672
 20
26.19688956422044
 10
41.08882448045142
 20
26.22542468161566
 10
41.11560801233212
 20
26.25930662901396
 10
41.2423487523622
 20
26.30923607648595
 42
0.9488459945554323
 10
35.36365143433864
 20
24.23827473149936
  0
LWPOLYLINE
  5
E2
102
{ACAD_REACTORS
330
E0
102
}
330
1F
100
AcDbEntity
  8
outline
100
AcDbPolyline
 90
       20
 70
     1
 43
0.0
 10
35.73823704032179
 20
23.4314734924709
 10
36.36327030413736
 20
23.8092333076645
 10
36.39741010157786
 20
23.80136458837728
 10
36.40529069697413
 20
23.80136458837728
 42
0.7760833890092828
 10
40.9172906148301
 20
25.51059279759682
 10
41.00066051047133
 20
25.52615107951022
 10
41.02355581332767
 20
25.53163891081965
 10
41.03455462984811
 20
25.53438753989792
 10
41.0455439972859
 20
25.54353863914764
 10
41.08873608536623
 20
25.66842921619559
 10
41.1033917249581
 20
25.68398749904031
 10
41.11804736455042
 20
25.68856069148785
 10
41.16935627683346
 20
25.69130460621125
 10
41.24814333222412
 20
25.69222395942802
 10
41.26554867598975
 20
25.54396767058688
 10
41.42770562702162
 20
25.55312348419136
 10
41.43961156243972
 20
25.54946021625096
 42
-0.7973878541250479
 10
35.73276597951258
 20
23.4033742917826
 10
35.73514716661953
 20
23.42558020429067
 10
35.73823704032179
 20
23.4314734924709
  0
LWPOLYLINE
  5
E3
330
1F
100
AcDbEntity
  8
thin line
100
AcDbPolyline
 90
        7
 70
     0
 43
0.0
 10
40.91954896287598
 20
24.98341689334529
 10
41.06882671549056
 20
24.89038307854253
 10
41.07648053116236
 20
24.87763943040102
 10
41.05606090693572
 20
24.69921893236517
 10
40.92720277854778
 20
24.64568901044606
 10
40.88893370030518
 20
24.63804187887638
 10
40.86468716824265
 20
24.63549597823351
  0
LWPOLYLINE
  5
E4
330
1F
100
AcDbEntity
  8
thin line
100
AcDbPolyline
 90
        9
 70
     0
 43
0.0
 10
40.26199170717108
 20
23.51688846369598
 10
40.28946985027846
 20
23.43455686123423
 10
40.30826421981305
 20
23.31467793678257
 10
40.3068184990841
 20
23.28723406960569
 10
40.28802412954951
 20
23.21790541970484
 10
40.27211175227399
 20
23.20201711246125
 10
40.23741445472069
 20
23.19190422893814
 10
40.17234757254459
 20
23.21357267332587
 10
40.02485571024567
 20
23.30312237591795
  0
LWPOLYLINE
  5
E5
330
1F
100
AcDbEntity
  8
thin line
100
AcDbPolyline
 90
        5
 70
     0
 43
0.0
 10
38.7959647392563
 20
22.76944499631736
 10
38.78227291346411
 20
22.66978241020206
 10
38.70401501076413
 20
22.67173426674083
 10
38.7001030605461
 20
22.67434145772234
 10
38.69619111032807
 20
22.75641847011957
  0
LWPOLYLINE
  5
E6
330
1F
100
AcDbEntity
  8
thin line
100
AcDbPolyline
 90
        7
 70
     0
 43
0.0
 10
38.28913095689518
 20
22.74831873440508
 10
38.27297290161368
 20
22.6358559241645
 10
38.26597107763542
 20
22.63370133825902
 10
38.25089022607449
 20
22.63208893389776
 10
38.23256831432832
 20
22.63316387013856
 10
38.22448928668769
 20
22.63746832852576
 10
38.18462330123316
 20
22.7553152468181
  0
LWPOLYLINE
  5
E7
330
1F
100
AcDbEntity
  8
thin line
100
AcDbPolyline
 90
        7
 70
     0
 43
0.0
 10
37.83699833348533
 20
22.81722306722167
 10
37.80782879158528
 20
22.75001600181088
 10
37.78580281100608
 20
22.75061004498366
 10
37.76614856839319
 20
22.75417902116999
 10
37.74888496196968
 20
22.76072292850688
 10
37.73519313617749
 20
22.77201918495212
 10
37.73578843296878
 20
22.84398802818111
  0
LWPOLYLINE
  5
E8
330
1F
100
AcDbEntity
  8
thin line
100
AcDbPolyline
 90
        6
 70
     0
 43
0.0
 10
37.40037177360523
 20
22.97233443037919
 10
37.38072698013321
 20
22.92996404023245
 10
37.377296936844
 20
22.92934170906745
 10
37.35140625180816
 20
22.94242952560399
 10
37.35047078543016
 20
22.94491885026309
 10
37.35920180476433
 20
22.99133910780154
  0
LWPOLYLINE
  5
E9
330
1F
100
AcDbEntity
  8
thin line
100
AcDbPolyline
 90
        6
 70
     0
 43
0.0
 10
37.05693278161971
 20
23.16324398649237
 10
36.98321992249157
 20
23.10164733120564
 10
36.96550275661912
 20
23.11014309694383
 10
36.94777614160603
 20
23.12713462748889
 10
36.9810938625892
 20
23.21138979942862
 10
36.98251123583805
 20
23.21493048669163
  0
LWPOLYLINE
  5
EA
330
1F
100
AcDbEntity
  8
thin line
100
AcDbPolyline
 90
        6
 70
     0
 43
0.0
 10
36.73736235537262
 20
23.41909287107501
 10
36.70700222000642
 20
23.40184203611068
 10
36.69926336195249
 20
23.40005990566078
 10
36.65401135807087
 20
23.43098788597933
 10
36.65341606127959
 20
23.44109605514757
 10
36.67008437091181
 20
23.48391904850791
  0
LWPOLYLINE
  5
EB
330
1F
100
AcDbEntity
  8
thin line
100
AcDbPolyline
 90
       13
 70
     0
 43
0.0
 10
36.01616503993933
 20
25.4030567769081
 10
35.96603727198158
 20
25.46468172018672
 10
35.9428962911195
 20
25.50512382556951
 10
35.93325815288768
 20
25.5532696375742
 10
35.92940289757166
 20
25.59564002772129
 10
35.94096866346149
 20
25.72081819718039
 10
36.02002029519713
 20
25.97309810650791
 10
36.02580317811294
 20
26.01354492624546
 10
36.0508623375506
 20
26.04243147076363
 10
36.08942433956031
 20
26.04243147076363
 10
36.12026638191378
 20
26.04243147076363
 10
36.13955210751783
 20
26.04050318693055
 10
36.16461126689751
 20
26.03087590989912
  0
LWPOLYLINE
  5
EC
330
1F
100
AcDbEntity
  8
thin line
100
AcDbPolyline
 90
       11
 70
     0
 43
0.0
 10
36.24198094898066
 20
26.21146513876761
 10
36.16679402170166
 20
26.2865739267437
 10
36.15137300055426
 20
26.31546047126188
 10
36.15522825581206
 20
26.363606284198
 10
36.16679402170166
 20
26.39442111254914
 10
36.18028741519152
 20
26.43101136462076
 10
36.21306653434363
 20
26.45796962530585
 10
36.22848755549126
 20
26.48686088417901
 10
36.2516190872127
 20
26.48493260034616
 10
36.32103258077473
 20
26.46760161669238
 10
36.3576575059858
 20
26.45604605582775
  0
LWPOLYLINE
  5
ED
330
1F
100
AcDbEntity
  8
thin line
100
AcDbPolyline
 90
       10
 70
     0
 43
0.0
 10
36.63588787856907
 20
26.81540938076807
 10
36.61468397444742
 20
26.86740704701515
 10
36.6069734638736
 20
26.89822187536629
 10
36.61082871918961
 20
26.936735696916
 10
36.63203262325306
 20
26.97910608613165
 10
36.66673937000496
 20
27.00414077733865
 10
36.69758141235843
 20
27.02725189906778
 10
36.71878531642188
 20
27.02917546854588
 10
36.75734731848979
 20
27.0253236152347
 10
36.81711322462116
 20
26.98488150985213
  0
LWPOLYLINE
  5
EE
330
1F
100
AcDbEntity
  8
thin line
100
AcDbPolyline
 90
        7
 70
     0
 43
0.0
 10
37.28991115026315
 20
27.32870069594344
 10
37.28027301203156
 20
27.39032563829085
 10
37.28027301203156
 20
27.41343676001998
 10
37.30533217141101
 20
27.43076774367353
 10
37.32846370313223
 20
27.43847145122698
 10
37.35353231171052
 20
27.41343676001998
 10
37.38244672634801
 20
27.37492293940159
  0
LWPOLYLINE
  5
EF
330
1F
100
AcDbEntity
  8
thin line
100
AcDbPolyline
 90
        5
 70
     0
 43
0.0
 10
37.82873032274097
 20
27.5486335212479
 10
37.83258557799877
 20
27.60640661028435
 10
37.88849622887233
 20
27.61411031783769
 10
37.91162776059378
 20
27.61411031783769
 10
37.91934772036643
 20
27.56981635821273
  0
HATCH
  5
F0
330
1F
100
AcDbEntity
  8
stonework
100
AcDbHatch
 10
0.0
 20
0.0
 30
0.0
210
0.0
220
0.0
230
1.0
  2
SOLID
 70
     1
 71
     1
 91
        2
 92
        1
 93
       13
 72
     1
 10
26.14778546880393
 20
24.01151926891259
 11
26.70327295091352
 21
24.20647869334846
 72
     1
 10
26.70327295091352
 20
24.20647869334846
 11
26.71077558010257
 21
24.22147593536704
 72
     1
 10
26.71077558010257
 20
24.22147593536704
 11
26.71077558010257
 21
24.24396944028615
 72
     1
 10
26.71077558010257
 20
24.24396944028615
 11
26.70327295091352
 21
24.26271481328934
 72
     2
 10
29.53768496569498
 20
25.09065366853989
 40
2.952858651810324
 50
163.7167839697534
 51
336.2144207978148
 73
     0
 72
     1
 10
32.23973136874383
 20
26.28158584685309
 11
32.26926942765249
 21
26.26355709770019
 72
     1
 10
32.26926942765249
 20
26.26355709770019
 11
32.29450812093683
 21
26.26355709770019
 72
     1
 10
32.29450812093683
 20
26.26355709770019
 11
32.82081661206439
 21
26.39679257274861
 72
     1
 10
32.82081661206439
 20
26.39679257274861
 11
32.83704081138831
 21
26.42739995737804
 72
     2
 10
29.50334304150583
 20
25.15280414963201
 40
3.569052436437876
 50
20.9237019288497
 51
198.5631586801374
 73
     1
 72
     1
 10
26.1199766053087
 20
24.01659692713349
 11
26.12991711650648
 21
24.0130939556409
 72
     1
 10
26.12991711650648
 20
24.0130939556409
 11
26.14101987374852
 21
24.01134482753764
 72
     1
 10
26.14101987374852
 20
24.01134482753764
 11
26.14778546880393
 21
24.01151926891259
 97
        1
330
F1
 92
        1
 93
       11
 72
     1
 10
26.47763657577707
 20
23.26197779068116
 11
27.00772472892072
 21
23.6044344481204
 72
     1
 10
27.00772472892072
 20
23.6044344481204
 11
27.03078066740068
 21
23.60731037316214
 72
     1
 10
27.03078066740068
 20
23.60731037316214
 11
27.04806317216366
 21
23.59867788368217
 72
     2
 10
29.54068944456279
 20
25.08474532391085
 40
2.901996238929706
 50
210.8027806400449
 51
366.815982183203
 73
     1
 72
     1
 10
32.4221756558004
 20
25.42915697471506
 11
32.42596476701556
 21
25.4405145205676
 72
     1
 10
32.42596476701556
 20
25.4405145205676
 11
32.44113066095861
 21
25.44619565160281
 72
     1
 10
32.44113066095861
 20
25.44619565160281
 11
33.02333090462025
 21
25.52618879714316
 72
     1
 10
33.02333090462025
 20
25.52618879714316
 11
33.03662586586529
 21
25.51689154451049
 72
     2
 10
29.52535378433701
 20
25.05487393800763
 40
3.541538069714705
 50
352.5040120822108
 51
509.4631127240559
 73
     0
 72
     1
 10
26.47501915980502
 20
23.25544331205401
 11
26.47717356718749
 21
23.26263783947877
 72
     1
 10
26.47717356718749
 20
23.26263783947877
 11
26.47763657577707
 21
23.26197779068116
 97
        1
330
F2
 75
     0
 76
     1
 98
        1
 10
-410680.1930339819
 20
-5916299.791232041
450
        0
451
        0
460
0.0
461
0.0
452
        1
462
1.0
453
        2
463
0.0
 63
     5
421
      255
463
1.0
 63
     7
421
 16777215
470
LINEAR
1001
ACAD
1010
0.0
1020
0.0
1030
0.0
  0
LWPOLYLINE
  5
F1
102
{ACAD_REACTORS
330
F0
102
}
330
1F
100
AcDbEntity
  8
outline
100
AcDbPolyline
 90
       13
 70
     1
 43
0.0
 10
26.14778546880393
 20
24.01151926891259
 10
26.70327295091352
 20
24.20647869334846
 10
26.71077558010257
 20
24.22147593536704
 10
26.71077558010257
 20
24.24396944028615
 10
26.70327295091352
 20
24.26271481328934
 42
-0.9365828515946251
 10
32.23973136874383
 20
26.28158584685309
 10
32.26926942765249
 20
26.26355709770019
 10
32.29450812093683
 20
26.26355709770019
 10
32.82081661206439
 20
26.39679257274861
 10
32.83704081138831
 20
26.42739995737804
 42
0.9796096696271233
 10
26.1199766053087
 20
24.01659692713349
 10
26.12991711650648
 20
24.0130939556409
 10
26.14101987374852
 20
24.01134482753764
  0
LWPOLYLINE
  5
F2
102
{ACAD_REACTORS
330
F0
102
}
330
1F
100
AcDbEntity
  8
outline
100
AcDbPolyline
 90
       11
 70
     1
 43
0.0
 10
26.47763657577707
 20
23.26197779068116
 10
27.00772472892072
 20
23.6044344481204
 10
27.03078066740068
 20
23.60731037316214
 10
27.04806317216366
 20
23.59867788368217
 42
0.8098794131572198
 10
32.4221756558004
 20
25.42915697471506
 10
32.42596476701556
 20
25.4405145205676
 10
32.44113066095861
 20
25.44619565160281
 10
33.02333090462025
 20
25.52618879714316
 10
33.03662586586529
 20
25.51689154451049
 42
-0.8167367279955341
 10
26.47501915980502
 20
23.25544331205401
 10
26.47717356718749
 20
23.26263783947877
  0
LWPOLYLINE
  5
F3
330
1F
100
AcDbEntity
  8
thin line
100
AcDbPolyline
 90
       17
 70
     0
 43
0.0
 10
32.44603477245664
 20
24.93153237813431
 10
32.49299707341243
 20
24.92036341765254
 10
32.54218937499218
 20
24.9069597216444
 10
32.58244277579479
 20
24.9069597216444
 10
32.64953177715188
 20
24.87791759410209
 10
32.70097297763687
 20
24.87345283833611
 10
32.72332967866214
 20
24.87345283833611
 10
32.74569582882782
 20
24.87345283833611
 10
32.77253142938253
 20
24.87568285857606
 10
32.799367029937
 20
24.88908655458408
 10
32.87539493201303
 20
24.89579076023108
 10
32.92459668273341
 20
24.89579076023108
 10
32.94919283352328
 20
24.9069597216444
 10
32.9737984334538
 20
24.91365921200531
 10
33.00957293478541
 20
24.91365921200531
 10
33.03417853471592
 20
24.91142447741038
 10
33.06101413521219
 20
24.92036341765254
  0
LWPOLYLINE
  5
F4
330
1F
100
AcDbEntity
  8
thin line
100
AcDbPolyline
 90
       17
 70
     0
 43
0.0
 10
32.35434017116904
 20
24.3641312427942
 10
32.40354192188943
 20
24.38423914444923
 10
32.4303775224439
 20
24.39540810493122
 10
32.45945257276299
 20
24.40657706634431
 10
32.51312377381373
 20
24.41774602682608
 10
32.55113772490995
 20
24.41774602682608
 10
32.58692167532399
 20
24.41104182211052
 10
32.62940507675057
 20
24.40881180093925
 10
32.66294957745822
 20
24.40881180093925
 10
32.71886022827334
 20
24.39763812517106
 10
32.75016527921662
 20
24.39317337033628
 10
32.77477087914713
 20
24.39093863481025
 10
32.82620263049125
 20
24.341793320899
 10
32.88210383216597
 20
24.29935221170365
 10
32.90670943209648
 20
24.29264800605665
 10
32.94472338313449
 20
24.28594851569562
 10
32.97155898368897
 20
24.27031008416145
  0
LWPOLYLINE
  5
F5
330
1F
100
AcDbEntity
  8
thin line
100
AcDbPolyline
 90
       12
 70
     0
 43
0.0
 10
31.82859862941086
 20
23.27991696150355
 10
31.89000868851576
 20
23.18994765711341
 10
31.93095187769041
 20
23.13269317691527
 10
31.93095187769041
 20
23.08770616707704
 10
31.91866797600665
 20
23.03454398718987
 10
31.91866797600665
 20
22.96502203756336
 10
31.84906549939888
 20
22.92412732710443
 10
31.80813175942308
 20
22.89141250198111
 10
31.75900560194418
 20
22.93230721243981
 10
31.69349460945932
 20
22.98546939232699
 10
31.62390158199264
 20
23.05090375692907
 10
31.61981009781153
 20
23.0549913419535
  0
LWPOLYLINE
  5
F6
330
1F
100
AcDbEntity
  8
thin line
100
AcDbPolyline
 90
       11
 70
     0
 43
0.0
 10
31.90638407432243
 20
22.44974586257115
 10
31.84088253103687
 20
22.54380275291726
 10
31.82450714522975
 20
22.63377205730751
 10
31.84088253103687
 20
22.69920642190937
 10
31.84088253103687
 20
22.76054848713193
 10
31.87772478688976
 20
22.80962308199469
 10
31.9473272634973
 20
22.8218905523546
 10
32.01282880678309
 20
22.8218905523546
 10
32.07833035006911
 20
22.79326331225548
 10
32.16430821254153
 20
22.74828101770356
 10
32.17658266502667
 20
22.73192124703292
  0
LWPOLYLINE
  5
F7
330
1F
100
AcDbEntity
  8
thin line
100
AcDbPolyline
 90
       15
 70
     0
 43
0.0
 10
26.61202245993445
 20
25.48403999471373
 10
26.50999993210098
 20
25.54518404585576
 10
26.46078873218153
 20
25.57515495532448
 10
26.44758826251746
 20
25.59553630539483
 10
26.4535884760171
 20
25.61112287623132
 10
26.48238950079213
 20
25.6854537490874
 10
26.50399971860134
 20
25.74540028331126
 10
26.5136000601542
 20
25.79455502686358
 10
26.53520082876458
 20
25.82932543178344
 10
26.54480117037565
 20
25.85690130834723
 10
26.55681104657356
 20
25.88087992259545
 10
26.56761143084987
 20
25.89526426215912
 10
26.61442254532267
 20
25.89046948199416
 10
26.67563417218275
 20
25.87248787918384
 10
26.68883464190526
 20
25.87008813192392
  0
LWPOLYLINE
  5
F8
330
1F
100
AcDbEntity
  8
thin line
100
AcDbPolyline
 90
       12
 70
     0
 43
0.0
 10
27.35806160422157
 20
27.08540687320056
 10
27.3232603658887
 20
27.13935639691761
 10
27.25364844014052
 20
27.28322807868233
 10
27.23203822233131
 20
27.3251882957411
 10
27.22843809427809
 20
27.33957734965941
 10
27.25004831202909
 20
27.36355596297642
 10
27.34486113449907
 20
27.45347340760043
 10
27.36046168960979
 20
27.46666023024591
 10
27.38327195008401
 20
27.46546271425882
 10
27.56569733885931
 20
27.31799848360243
 10
27.58010730038745
 20
27.30360942968389
 10
27.50448571194079
 20
27.34437212982437
  0
LWPOLYLINE
  5
F9
330
1F
100
AcDbEntity
  8
thin line
100
AcDbPolyline
 90
        9
 70
     0
 43
0.0
 10
28.04972086074622
 20
27.64357676153281
 10
27.97770884960983
 20
27.83390170411417
 10
27.96570842261053
 20
27.87436738220254
 10
27.98071368092997
 20
27.89834599645087
 10
28.05722348993504
 20
27.93431391642639
 10
28.08422917525377
 20
27.94779776205519
 10
28.1082394784512
 20
27.93581316975167
 10
28.22375539977429
 20
27.76346511562565
 10
28.23725824246276
 20
27.74248500709644
  0
HATCH
  5
FA
330
1F
100
AcDbEntity
  8
stonework
100
AcDbHatch
 10
0.0
 20
0.0
 30
0.0
210
0.0
220
0.0
230
1.0
  2
SOLID
 70
     1
 71
     1
 91
        3
 92
        1
 93
        7
 72
     1
 10
44.58648006237104
 20
27.20367787153168
 11
44.90552133586925
 21
26.78840845104947
 72
     1
 10
44.90552133586925
 20
26.78840845104947
 11
44.9345302420877
 21
26.78840845104947
 72
     2
 10
46.43602429184827
 20
24.55302244635722
 40
2.692848857890164
 50
236.1110024178334
 51
282.2696479599353
 73
     0
 72
     1
 10
47.00828907077357
 20
27.18436202806117
 11
47.02763149133807
 21
27.20367787153168
 72
     1
 10
47.02763149133807
 20
27.20367787153168
 11
47.22581807084771
 21
27.6672298286918
 72
     1
 10
47.22581807084771
 20
27.6672298286918
 11
47.22098955259116
 21
27.6768853927839
 72
     2
 10
46.35417534086877
 20
24.93252381620133
 40
2.878000580379837
 50
72.47113382441283
 51
127.8945031054474
 73
     1
 97
        1
330
FB
 92
        1
 93
       10
 72
     1
 10
48.00415442735811
 20
26.70774582800175
 11
48.00415442735811
 21
26.72179071352525
 72
     1
 10
48.00415442735811
 20
26.72179071352525
 11
48.01704307491559
 21
26.73115397085155
 72
     1
 10
48.01704307491559
 20
26.73115397085155
 11
48.2748160266517
 21
26.962901662371
 72
     1
 10
48.2748160266517
 20
26.962901662371
 11
48.28887636945251
 21
26.96992646184469
 72
     1
 10
48.28887636945251
 20
26.96992646184469
 11
48.30059332176711
 21
26.96875723384949
 72
     2
 10
46.34118843824502
 20
25.0790126754429
 40
2.722205354780845
 50
316.0368022945192
 51
366.2363488525555
 73
     0
 72
     1
 10
49.04728445780574
 20
24.78329942495327
 11
49.04461034687347
 21
24.77128183030277
 72
     1
 10
49.04461034687347
 20
24.77128183030277
 11
48.65829108891444
 21
24.68048275009494
 72
     1
 10
48.65829108891444
 20
24.68048275009494
 11
48.6502687562338
 21
24.68449018736123
 72
     2
 10
46.08236178672661
 20
24.97923893610262
 40
2.584767499975227
 50
353.452147848955
 51
401.9689816310767
 73
     1
 97
        1
330
FC
 92
        1
 93
       28
 72
     1
 10
48.10625254843285
 20
23.00736861609653
 11
48.1179317041267
 21
23.02292689894125
 72
     1
 10
48.1179317041267
 20
23.02292689894125
 11
48.11014560031139
 21
23.03265318301317
 72
     1
 10
48.11014560031139
 20
23.03265318301317
 11
47.83751857679703
 21
23.411978255294
 72
     1
 10
47.83751857679703
 20
23.411978255294
 11
47.82193691996758
 21
23.411978255294
 72
     1
 10
47.82193691996758
 20
23.411978255294
 11
47.80440873719885
 21
23.40419439998243
 72
     2
 10
46.56700805658173
 20
25.30930353063839
 40
2.271695675943507
 50
56.99559295393608
 51
184.1951694791874
 73
     0
 72
     1
 10
44.30139905235023
 20
25.47548741687763
 11
44.28588353967984
 21
25.47262563583184
 72
     1
 10
44.28588353967984
 20
25.47262563583184
 11
44.25352963249657
 21
25.46320108816713
 72
     1
 10
44.25352963249657
 20
25.46320108816713
 11
44.21713148700996
 21
25.45242815584618
 72
     1
 10
44.21713148700996
 20
25.45242815584618
 11
44.16590761710881
 21
25.44030683980066
 72
     1
 10
44.16590761710881
 20
25.44030683980066
 11
44.14433519592035
 21
25.43627111547369
 72
     1
 10
44.14433519592035
 20
25.43627111547369
 11
44.10928827958173
 21
25.43357434616166
 72
     1
 10
44.10928827958173
 20
25.43357434616166
 11
43.99605905378462
 21
25.43088229213584
 72
     1
 10
43.99605905378462
 20
25.43088229213584
 11
43.95966090823981
 21
25.42145774447113
 72
     1
 10
43.95966090823981
 20
25.42145774447113
 11
43.91248127675839
 21
25.40126026448536
 72
     1
 10
43.91248127675839
 20
25.40126026448536
 11
43.89361131398255
 21
25.39587144114762
 72
     1
 10
43.89361131398255
 20
25.39587144114762
 11
43.83834320566143
 21
25.39317938712168
 72
     1
 10
43.83834320566143
 20
25.39317938712168
 11
43.78442632654674
 21
25.39183100246567
 72
     1
 10
43.78442632654674
 20
25.39183100246567
 11
43.75880966699674
 21
25.39721982580363
 72
     1
 10
43.75880966699674
 20
25.39721982580363
 11
43.72106974144458
 21
25.41472525083213
 72
     1
 10
43.72106974144458
 20
25.41472525083213
 11
43.66445040397593
 21
25.43357434616166
 72
     1
 10
43.66445040397593
 20
25.43357434616166
 11
43.63344772599861
 21
25.44300360818136
 72
     1
 10
43.63344772599861
 20
25.44300360818136
 11
43.61456831408213
 21
25.43627111547369
 72
     1
 10
43.61456831408213
 20
25.43627111547369
 11
43.59974258966758
 21
25.43088229213584
 72
     1
 10
43.59974258966758
 20
25.43088229213584
 11
43.58491686531102
 21
25.41606892113316
 72
     1
 10
43.58491686531102
 20
25.41606892113316
 11
43.55930020576124
 21
25.39856349610466
 72
     1
 10
43.55930020576124
 20
25.39856349610466
 11
43.55122117812061
 21
25.38913894843995
 72
     2
 10
46.35771533490574
 20
25.20990192473177
 40
2.812211827501056
 50
176.3457622889871
 51
308.4451995158892
 73
     1
 97
        1
330
FD
 75
     0
 76
     1
 98
        1
 10
-410677.3696635229
 20
-5916299.83273046
450
        0
451
        0
460
0.0
461
0.0
452
        1
462
1.0
453
        2
463
0.0
 63
     5
421
      255
463
1.0
 63
     7
421
 16777215
470
LINEAR
1001
ACAD
1010
0.0
1020
0.0
1030
0.0
  0
LWPOLYLINE
  5
FB
102
{ACAD_REACTORS
330
FA
102
}
330
1F
100
AcDbEntity
  8
outline
100
AcDbPolyline
 90
        7
 70
     1
 43
0.0
 10
44.58648006237104
 20
27.20367787153168
 10
44.90552133586925
 20
26.78840845104947
 10
44.9345302420877
 20
26.78840845104947
 42
-0.2041732758636602
 10
47.00828907077357
 20
27.18436202806117
 10
47.02763149133807
 20
27.20367787153168
 10
47.22581807084771
 20
27.6672298286918
 10
47.22098955259116
 20
27.6768853927839
 42
0.2466572390766724
  0
LWPOLYLINE
  5
FC
102
{ACAD_REACTORS
330
FA
102
}
330
1F
100
AcDbEntity
  8
outline
100
AcDbPolyline
 90
       10
 70
     1
 43
0.0
 10
48.00415442735811
 20
26.70774582800175
 10
48.00415442735811
 20
26.72179071352525
 10
48.01704307491559
 20
26.73115397085155
 10
48.2748160266517
 20
26.962901662371
 10
48.28887636945251
 20
26.96992646184469
 10
48.30059332176711
 20
26.96875723384949
 42
-0.222608318282523
 10
49.04728445780574
 20
24.78329942495327
 10
49.04461034687347
 20
24.77128183030277
 10
48.65829108891444
 20
24.68048275009494
 10
48.6502687562338
 20
24.68449018736123
 42
0.2149146954633223
  0
LWPOLYLINE
  5
FD
102
{ACAD_REACTORS
330
FA
102
}
330
1F
100
AcDbEntity
  8
outline
100
AcDbPolyline
 90
       28
 70
     1
 43
0.0
 10
48.10625254843285
 20
23.00736861609653
 10
48.1179317041267
 20
23.02292689894125
 10
48.11014560031139
 20
23.03265318301317
 10
47.83751857679703
 20
23.411978255294
 10
47.82193691996758
 20
23.411978255294
 10
47.80440873719885
 20
23.40419439998243
 42
-0.6200237109238055
 10
44.30139905235023
 20
25.47548741687763
 10
44.28588353967984
 20
25.47262563583184
 10
44.25352963249657
 20
25.46320108816713
 10
44.21713148700996
 20
25.45242815584618
 10
44.16590761710881
 20
25.44030683980066
 10
44.14433519592035
 20
25.43627111547369
 10
44.10928827958173
 20
25.43357434616166
 10
43.99605905378462
 20
25.43088229213584
 10
43.95966090823981
 20
25.42145774447113
 10
43.91248127675839
 20
25.40126026448536
 10
43.89361131398255
 20
25.39587144114762
 10
43.83834320566143
 20
25.39317938712168
 10
43.78442632654674
 20
25.39183100246567
 10
43.75880966699674
 20
25.39721982580363
 10
43.72106974144458
 20
25.41472525083213
 10
43.66445040397593
 20
25.43357434616166
 10
43.63344772599861
 20
25.44300360818136
 10
43.61456831408213
 20
25.43627111547369
 10
43.59974258966758
 20
25.43088229213584
 10
43.58491686531102
 20
25.41606892113316
 10
43.55930020576124
 20
25.39856349610466
 10
43.55122117812061
 20
25.38913894843995
 42
0.6500246227834094
  0
LWPOLYLINE
  5
FE
330
1F
100
AcDbEntity
  8
thin line
100
AcDbPolyline
 90
        6
 70
     0
 43
0.0
 10
46.53769279827542
 20
27.24729763836308
 10
46.5438819948788
 20
27.32771510005637
 10
46.5612211945438
 20
27.32895033367618
 10
46.65410638935577
 20
27.32895033367618
 10
46.65781990732944
 20
27.32028955620422
 10
46.6763969463384
 20
27.2361663936515
  0
LWPOLYLINE
  5
FF
330
1F
100
AcDbEntity
  8
thin line
100
AcDbPolyline
 90
        6
 70
     0
 43
0.0
 10
48.21781872291717
 20
26.44044981830484
 10
48.28958505610604
 20
26.48617702563013
 10
48.29948777062487
 20
26.48617702563013
 10
48.3291770160165
 20
26.45651728127814
 10
48.26855123680684
 20
26.36505815320379
 10
48.26731339746288
 20
26.36258297160919
  0
LWPOLYLINE
  5
100
330
1F
100
AcDbEntity
  8
thin line
100
AcDbPolyline
 90
        2
 70
     0
 43
0.0
 10
18.5563699950701
 20
28.50147166830686
 42
-0.0448708114459438
 10
19.38453870931425
 20
28.83514052798228
 42
-5.807094518684803
  0
LWPOLYLINE
  5
101
330
1F
100
AcDbEntity
  8
thin line
100
AcDbPolyline
 90
        2
 70
     0
 43
0.0
 10
18.83326424263669
 20
27.9242802521328
 42
-0.0836009725921945
 10
19.61422821094766
 20
28.22856606991241
 42
-0.5470509622985722
  0
LWPOLYLINE
  5
102
330
1F
100
AcDbEntity
  8
thin line
100
AcDbPolyline
 90
        2
 70
     0
 43
0.0
 10
21.44379483804778
 20
28.87733353843169
 42
-0.1339909808007416
 10
22.87149612880262
 20
28.02905150299171
 42
0.4098663774942933
  0
LWPOLYLINE
  5
103
330
1F
100
AcDbEntity
  8
thin line
100
AcDbPolyline
 90
        2
 70
     0
 43
0.0
 10
21.3883457642628
 20
28.18373117764691
 42
-0.0829246003161426
 10
22.50522044622289
 20
27.61241216567567
 42
-1.28700056752349
  0
LWPOLYLINE
  5
104
330
1F
100
AcDbEntity
  8
thin line
100
AcDbPolyline
 90
        2
 70
     0
 43
0.0
 10
24.10592621787123
 20
26.47428005357517
 42
-0.0719778139435343
 10
24.29048961157582
 20
25.62954388448293
 42
1.632129989494809
  0
LWPOLYLINE
  5
105
330
1F
100
AcDbEntity
  8
thin line
100
AcDbPolyline
 90
        2
 70
     0
 43
0.0
 10
23.40237747110586
 20
26.272761300963
 42
-0.0977159567869965
 10
23.63854164928125
 20
25.42952476796961
 42
-18.56173458046582
  0
LWPOLYLINE
  5
106
330
1F
100
AcDbEntity
  8
thin line
100
AcDbPolyline
 90
        2
 70
     0
 43
0.0
 10
21.00854488969753
 20
21.04600662348218
 42
0.0972723771963669
 10
22.36810056086347
 20
21.61430534237422
 42
0.0053641166689403
  0
LWPOLYLINE
  5
107
330
1F
100
AcDbEntity
  8
thin line
100
AcDbPolyline
 90
        2
 70
     0
 43
0.0
 10
20.83952914610245
 20
21.96083322429434
 42
0.1002254752631988
 10
21.9152805032902
 20
22.30952646845356
 42
-0.3335457946848082
  0
LWPOLYLINE
  5
108
330
1F
100
AcDbEntity
  8
thin line
100
AcDbPolyline
 90
        2
 70
     0
 43
0.0
 10
18.69899546216493
 20
22.40782265813414
 42
0.0446293312887389
 10
19.4285131399638
 20
22.0236497249582
 42
0.5857655062917749
  0
LWPOLYLINE
  5
109
330
1F
100
AcDbEntity
  8
thin line
100
AcDbPolyline
 90
        2
 70
     0
 43
0.0
 10
18.41998044204706
 20
21.81857809779581
 42
0.0059259865599726
 10
19.12194212061604
 20
21.27765823510845
 42
-0.9457652316656758
  0
LWPOLYLINE
  5
10A
330
1F
100
AcDbEntity
  8
thin line
100
AcDbPolyline
 90
        2
 70
     0
 43
0.0
 10
27.04806317233829
 20
23.59867788368217
 42
-0.0876186768551279
 10
26.70327295038987
 20
24.2627148151521
 42
-0.2427649939976832
  0
LWPOLYLINE
  5
10B
330
1F
100
AcDbEntity
  8
thin line
100
AcDbPolyline
 90
        2
 70
     0
 43
0.0
 10
26.11997660466841
 20
24.01659692806493
 42
0.0500689378429157
 10
26.47763657577707
 20
23.26197779068116
 42
-1.14345614116967
  0
LWPOLYLINE
  5
10C
330
1F
100
AcDbEntity
  8
thin line
100
AcDbPolyline
 90
        2
 70
     0
 43
0.0
 10
32.83704081138831
 20
26.42739995737804
 42
-0.0570219998072031
 10
33.03662586586529
 20
25.51689154451049
 42
0.5593799603856975
  0
LWPOLYLINE
  5
10D
330
1F
100
AcDbEntity
  8
thin line
100
AcDbPolyline
 90
        2
 70
     0
 43
0.0
 10
32.23973136915129
 20
26.28158584592177
 42
-0.1113811460246642
 10
32.4221756558004
 20
25.42915697471506
 42
-1.870585102979187
  0
LWPOLYLINE
  5
10E
330
1F
100
AcDbEntity
  8
thin line
100
AcDbPolyline
 90
        2
 70
     0
 43
0.0
 10
36.10613250968209
 20
24.463093892497
 42
0.0709690613712428
 10
36.4052906965087
 20
23.80136458930872
 42
1.32637481358858
  0
LWPOLYLINE
  5
10F
330
1F
100
AcDbEntity
  8
thin line
100
AcDbPolyline
 90
        2
 70
     0
 43
0.0
 10
35.3636514338732
 20
24.23827473149936
 42
0.0724804891356781
 10
35.73276597951258
 20
23.4033742917826
 42
-1.936193634033061
  0
LWPOLYLINE
  5
110
330
1F
100
AcDbEntity
  8
thin line
100
AcDbPolyline
 90
        2
 70
     0
 43
0.0
 10
41.24234875247885
 20
26.30923607648595
 42
-0.0632682923616496
 10
41.43961156243972
 20
25.54946021625096
 42
0.2543277153770942
  0
LWPOLYLINE
  5
111
330
1F
100
AcDbEntity
  8
thin line
100
AcDbPolyline
 90
        2
 70
     0
 43
0.0
 10
40.73714139833419
 20
26.20937017427082
 42
-0.0933001532522699
 10
40.9172906148301
 20
25.51059279759682
 42
-2.703838101860319
  0
LWPOLYLINE
  5
112
330
1F
100
AcDbEntity
  8
thin line
100
AcDbPolyline
 90
        2
 70
     0
 43
0.0
 10
47.22098955259116
 20
27.6768853927839
 42
-0.1781129004686677
 10
48.30059332176711
 20
26.96875723384949
 42
-0.7330405416238629
  0
LWPOLYLINE
  5
113
330
1F
100
AcDbEntity
  8
thin line
100
AcDbPolyline
 90
        2
 70
     0
 43
0.0
 10
47.00828907065738
 20
27.18436202806117
 42
-0.141633777677662
 10
48.00415442735811
 20
26.70774582800175
 42
-11.42136721712664
  0
LWPOLYLINE
  5
114
330
1F
100
AcDbEntity
  8
thin line
  6
DASHED2
100
AcDbPolyline
 90
        2
 70
     0
 43
0.0
 10
44.9345302420877
 20
26.78840845104947
 42
0.1819962616963143
 10
44.30139905235023
 20
25.47548741687763
 42
3.700323243050348
  0
LWPOLYLINE
  5
115
330
1F
100
AcDbEntity
  8
thin line
  6
DASHED2
100
AcDbPolyline
 90
        2
 70
     0
 43
0.0
 10
44.58648006149792
 20
27.20367787153168
 42
0.167592620880435
 10
43.55122117812061
 20
25.38913894843995
 42
-5.398342243456195
  0
LWPOLYLINE
  5
116
330
1F
100
AcDbEntity
  8
thin line
  6
DASHED2
100
AcDbPolyline
 90
        2
 70
     0
 43
0.0
 10
48.6502687562338
 20
24.68449018736123
 42
-0.1695356722061959
 10
47.80440873719885
 20
23.40419439998243
 42
5.17508693182799
  0
LWPOLYLINE
  5
117
330
1F
100
AcDbEntity
  8
thin line
  6
DASHED2
100
AcDbPolyline
 90
        2
 70
     0
 43
0.0
 10
49.04461034687347
 20
24.77128183030277
 42
-0.1928360723947414
 10
48.1179317041267
 20
23.02292689894125
 42
0.8802381984361172
  0
LWPOLYLINE
  5
140
330
1F
100
AcDbEntity
  8
outline
100
AcDbPolyline
 90
        4
 70
     1
 43
0.0
 38
-11328189.12953852
 10
11.89510523882359
 20
37.47304713807796
 10
53.89510523880995
 20
37.47304713807796
 10
53.89510523880995
 20
7.768161100064617
 10
11.89510523882359
 20
7.768161100064617
  0
LWPOLYLINE
  5
141
330
1F
100
AcDbEntity
  8
outline
100
AcDbPolyline
 90
        4
 70
     1
 43
0.0
 38
-10847326.88606383
 10
13.6176178961839
 20
36.25805059506286
 10
52.05196163902496
 20
36.25805059506286
 10
52.05196163902496
 20
12.46642367945514
 10
13.6176178961839
 20
12.46642367945514
  0
LWPOLYLINE
  5
142
330
1F
100
AcDbEntity
  8
thin line
100
AcDbPolyline
 90
        2
 70
     0
 43
0.0
 10
23.27006448973339
 20
14.00748123445976
 10
33.27006448973339
 20
14.00748123445976
  0
LWPOLYLINE
  5
143
330
1F
100
AcDbEntity
  8
thin line
100
AcDbPolyline
 90
        2
 70
     0
 43
0.0
 10
23.27006448973339
 20
13.57432582912474
 10
33.27006448973339
 20
13.57432582912474
  0
LWPOLYLINE
  5
144
330
1F
100
AcDbEntity
  8
thin line
100
AcDbPolyline
 90
        2
 70
     0
 43
0.0
 10
23.27006448973339
 20
14.00748123445976
 10
23.27006448973339
 20
13.57432582912474
  0
LWPOLYLINE
  5
145
330
1F
100
AcDbEntity
  8
thin line
100
AcDbPolyline
 90
        2
 70
     0
 43
0.0
 10
33.27006448973339
 20
14.00748123445976
 10
33.27006448973339
 20
13.57432582912474
  0
LWPOLYLINE
  5
146
330
1F
100
AcDbEntity
  8
thin line
100
AcDbPolyline
 90
        2
 70
     0
 43
0.0
 10
28.27006448973339
 20
13.57432582912474
 10
28.27006448973339
 20
14.00748123445976
  0
LWPOLYLINE
  5
147
330
1F
100
AcDbEntity
  8
thin line
100
AcDbPolyline
 90
        2
 70
     0
 43
0.0
 10
28.27006448973339
 20
13.79090353179231
 10
33.27006448973339
 20
13.79090353179231
  0
LWPOLYLINE
  5
148
330
1F
100
AcDbEntity
  8
thin line
100
AcDbPolyline
 90
        2
 70
     0
 43
0.0
 10
24.27006448973225
 20
14.00748123445976
 10
24.27006448973225
 20
13.57432582912474
  0
LWPOLYLINE
  5
149
330
1F
100
AcDbEntity
  8
thin line
100
AcDbPolyline
 90
        2
 70
     0
 43
0.0
 10
24.27006448973225
 20
13.79090353179231
 10
25.27006448973111
 20
13.79090353179231
  0
LWPOLYLINE
  5
14A
330
1F
100
AcDbEntity
  8
thin line
100
AcDbPolyline
 90
        2
 70
     0
 43
0.0
 10
25.27006448973111
 20
14.00748123445976
 10
25.27006448973111
 20
13.57432582912474
  0
LWPOLYLINE
  5
14B
330
1F
100
AcDbEntity
  8
thin line
100
AcDbPolyline
 90
        2
 70
     0
 43
0.0
 10
26.27006448972998
 20
14.00748123445976
 10
26.27006448972998
 20
13.57432582912474
  0
LWPOLYLINE
  5
14C
330
1F
100
AcDbEntity
  8
thin line
100
AcDbPolyline
 90
        2
 70
     0
 43
0.0
 10
26.27006448972998
 20
13.79090353179231
 10
27.27006448972884
 20
13.79090353179231
  0
LWPOLYLINE
  5
14D
330
1F
100
AcDbEntity
  8
thin line
100
AcDbPolyline
 90
        2
 70
     0
 43
0.0
 10
27.27006448972884
 20
14.00748123445976
 10
27.27006448972884
 20
13.57432582912474
  0
MTEXT
  5
14E
330
1F
100
AcDbEntity
  8
thin line
100
AcDbMText
 10
23.18232968896996
 20
14.49782738958902
 30
0.0
 40
0.2499999999999432
 41
0.5500706611199916
 71
     1
 72
     5
  1
{\fArial|b0|i0|c0|p34;\H1.4x;0}
 73
     1
 44
1.0
1001
ACAD
1000
ACAD_MTEXT_DEFINED_HEIGHT_BEGIN
1070
    46
1040
0.0
1000
ACAD_MTEXT_DEFINED_HEIGHT_END
  0
MTEXT
  5
14F
330
1F
100
AcDbEntity
  8
thin line
100
AcDbMText
 10
24.19558364414025
 20
14.49782738958902
 30
0.0
 40
0.2499999999999432
 41
0.5500706611199916
 71
     1
 72
     5
  1
{\fArial|b0|i0|c0|p34;\H1.4x;1}
 73
     1
 44
1.0
1001
ACAD
1000
ACAD_MTEXT_DEFINED_HEIGHT_BEGIN
1070
    46
1040
0.0
1000
ACAD_MTEXT_DEFINED_HEIGHT_END
  0
MTEXT
  5
150
330
1F
100
AcDbEntity
  8
thin line
100
AcDbMText
 10
25.19136766419137
 20
14.49782738958902
 30
0.0
 40
0.2499999999999432
 41
0.5500706611199916
 71
     1
 72
     5
  1
{\fArial|b0|i0|c0|p34;\H1.4x;2}
 73
     1
 44
1.0
1001
ACAD
1000
ACAD_MTEXT_DEFINED_HEIGHT_BEGIN
1070
    46
1040
0.0
1000
ACAD_MTEXT_DEFINED_HEIGHT_END
  0
MTEXT
  5
151
330
1F
100
AcDbEntity
  8
thin line
100
AcDbMText
 10
26.20462161936166
 20
14.49782738958902
 30
0.0
 40
0.2499999999999432
 41
0.5500706611199916
 71
     1
 72
     5
  1
{\fArial|b0|i0|c0|p34;\H1.4x;3}
 73
     1
 44
1.0
1001
ACAD
1000
ACAD_MTEXT_DEFINED_HEIGHT_BEGIN
1070
    46
1040
0.0
1000
ACAD_MTEXT_DEFINED_HEIGHT_END
  0
MTEXT
  5
152
330
1F
100
AcDbEntity
  8
thin line
100
AcDbMText
 10
27.20040703639666
 20
14.49782738958902
 30
0.0
 40
0.2499999999999432
 41
0.5500706611199916
 71
     1
 72
     5
  1
{\fArial|b0|i0|c0|p34;\H1.4x;4}
 73
     1
 44
1.0
1001
ACAD
1000
ACAD_MTEXT_DEFINED_HEIGHT_BEGIN
1070
    46
1040
0.0
1000
ACAD_MTEXT_DEFINED_HEIGHT_END
  0
MTEXT
  5
153
330
1F
100
AcDbEntity
  8
thin line
100
AcDbMText
 10
28.19619107973085
 20
14.49782738958902
 30
0.0
 40
0.2499999999999432
 41
0.5500706611199916
 71
     1
 72
     5
  1
{\fArial|b0|i0|c0|p34;\H1.4x;5}
 73
     1
 44
1.0
1001
ACAD
1000
ACAD_MTEXT_DEFINED_HEIGHT_BEGIN
1070
    46
1040
0.0
1000
ACAD_MTEXT_DEFINED_HEIGHT_END
  0
MTEXT
  5
154
330
1F
100
AcDbEntity
  8
thin line
100
AcDbMText
 10
33.05282456781856
 20
14.49782738958902
 30
0.0
 40
0.2499999999999432
 41
0.5500706611199916
 71
     1
 72
     5
  1
{\fArial|b0|i0|c0|p34;\H1.4x;10m}
 73
     1
 44
1.0
1001
ACAD
1000
ACAD_MTEXT_DEFINED_HEIGHT_BEGIN
1070
    46
1040
0.0
1000
ACAD_MTEXT_DEFINED_HEIGHT_END
  0
MTEXT
  5
155
330
1F
100
AcDbEntity
  8
thin line
100
AcDbMText
 10
13.6550183313027
 20
12.06438820840333
 30
0.0
 40
0.2499999999999432
 41
11.74999999999733
 71
     1
 72
     5
  1
{\fArial|b0|i0|c0|p34;\H2x;Parys Mountain Windmill, Anglesey\P\H0.7x;NPRN: 306041\PNGR: SH4431690513\PDrawn by: SF 14/07/2009\PPlans\PScale: 1:50 at A2}
 73
     1
 44
1.0
  0
MTEXT
  5
15E
330
1F
100
AcDbEntity
  8
thin line
100
AcDbMText
 10
19.01746361826281
 20
19.29077904393023
 30
0.0
 40
0.3499999999999204
 41
4.755265288985184
 71
     1
 72
     5
  1
{\fArial|b0|i0|c0|p34;Ground Floor}
 73
     1
 44
1.0
  0
MTEXT
  5
168
330
1F
100
AcDbEntity
  8
thin line
100
AcDbMText
 10
28.69164239579982
 20
19.29077904393023
 30
0.0
 40
0.3499999999999204
 41
4.755265288985184
 71
     1
 72
     5
  1
{\fArial|b0|i0|c0|p34;First Floor}
 73
     1
 44
1.0
  0
MTEXT
  5
169
330
1F
100
AcDbEntity
  8
thin line
100
AcDbMText
 10
37.07870596070711
 20
19.29077904393023
 30
0.0
 40
0.3499999999999204
 41
4.755265288985184
 71
     1
 72
     5
  1
{\fArial|b0|i0|c0|p34;Second Floor}
 73
     1
 44
1.0
  0
MTEXT
  5
16A
330
1F
100
AcDbEntity
  8
thin line
100
AcDbMText
 10
45.34120461167026
 20
19.29077904393023
 30
0.0
 40
0.3499999999999204
 41
4.755265288985184
 71
     1
 72
     5
  1
{\fArial|b0|i0|c0|p34;Third Floor}
 73
     1
 44
1.0
  0
INSERT
  5
177
330
1F
100
AcDbEntity
  8
0
100
AcDbBlockReference
  2
Logos for Lou
 10
43.68435176365767
 20
8.096938818178839
 30
0.0
 41
3.28008579721125
 42
3.28008579721125
 43
3.28008579721125
  0
LWPOLYLINE
  5
1E1
102
{ACAD_REACTORS
330
279
102
}
330
1F
100
AcDbEntity
  8
outline
100
AcDbPolyline
 90
        8
 70
     0
 43
0.0
 10
17.33166054416227
 20
24.26590443950441
 10
17.33344662886837
 20
24.24938698094748
 10
17.332332405837
 20
24.24270567564523
 10
17.3145055689329
 20
24.23379726857556
 10
16.72064932367208
 20
24.06342342526718
 10
16.70839335805888
 20
24.06342342526718
 10
16.70282248676797
 20
24.06342342526718
 10
16.68945242005634
 20
24.07010480033205
  0
LWPOLYLINE
  5
1E2
102
{ACAD_REACTORS
330
28A
102
}
330
1F
100
AcDbEntity
  8
outline
100
AcDbPolyline
 90
        8
 70
     0
 43
0.0
 10
17.63521306954011
 20
23.53376262792319
 10
17.6294247721119
 20
23.53401599736974
 10
17.62299927297826
 20
23.53401599736974
 10
17.60647675252922
 20
23.52851151764432
 10
17.03461196308647
 20
23.28539842657157
 10
17.0226789977808
 20
23.27897656843987
 10
17.01625349864716
 20
23.27255471030818
 10
17.01549234515905
 20
23.27103322880933
  0
HATCH
  5
279
330
1F
100
AcDbEntity
  8
stonework
100
AcDbHatch
 10
0.0
 20
0.0
 30
0.0
210
0.0
220
0.0
230
1.0
  2
SOLID
 70
     1
 71
     1
 91
        5
 92
        7
 72
     1
 73
     1
 93
       32
 10
23.46222258337002
 20
27.60100372490683
 42
0.0
 10
23.37698437955623
 20
27.58681325038186
 42
0.0
 10
23.36909117300456
 20
27.59469684754721
 42
0.0
 10
23.3611979664529
 20
27.60888732114086
 42
0.0
 10
23.36435805803558
 20
27.63569855858793
 42
0.0
 10
23.41448413308171
 20
27.78306926396886
 42
0.0706224395211362
 10
22.8951757484574
 20
28.02905150299171
 42
0.0
 10
22.87149612880262
 20
28.02905150299171
 42
0.0
 10
22.81467065955462
 20
27.94390164857009
 42
0.0
 10
22.80196006894061
 20
27.88519863394301
 42
0.0
 10
22.7972269539714
 20
27.81582298112324
 42
0.0
 10
22.7972269539714
 20
27.74328688142099
 42
0.0
 10
22.79090677080626
 20
27.71805937198213
 42
0.0
 10
22.77038724273371
 20
27.70071545877704
 42
0.0
 10
22.74197450816791
 20
27.69283186161181
 42
0.0
 10
22.70409554360596
 20
27.69913873897158
 42
0.0
 10
22.58887158178183
 20
27.72278952953628
 42
0.0
 10
22.54940554908194
 20
27.72278952953627
 42
0.0
 10
22.52888602100938
 20
27.71017577481678
 42
0.0
 10
22.50522044622289
 20
27.65972075407614
 42
0.0
 10
22.50522044622289
 20
27.61241216567567
 42
-0.1129094243614907
 10
23.38327647304323
 20
26.30058163852675
 42
0.0
 10
23.40237747110586
 20
26.272761300963
 42
0.0
 10
23.41909084441067
 20
26.26084130239918
 42
0.0
 10
23.43500366115404
 20
26.25448537134821
 42
0.0
 10
23.45886586386406
 20
26.25368650053884
 42
0.0
 10
24.06247144729036
 20
26.38144281675363
 42
0.0
 10
24.07096858248019
 20
26.38711199891998
 42
0.0
 10
24.08004155657148
 20
26.39730811753542
 42
0.0
 10
24.09478865064353
 20
26.41429464035901
 42
0.0
 10
24.10613689066281
 20
26.43525449727894
 42
0.0
 10
24.10592621787123
 20
26.47428005357517
 42
0.0610056732476016
 97
        1
330
DA
 92
        7
 72
     1
 73
     1
 93
       42
 10
24.29048961157582
 20
25.62954388448293
 42
0.0
 10
24.27975934506298
 20
25.63669167907244
 42
0.0
 10
24.24519496546033
 20
25.64383246639079
 42
0.0
 10
24.21540583543151
 20
25.64740636368537
 42
0.0
 10
23.66595719942051
 20
25.47119921242153
 42
0.0
 10
23.65642074525726
 20
25.46286011935479
 42
0.0
 10
23.64570452355474
 20
25.44738724624063
 42
0.0
 10
23.63854164928125
 20
25.42952476796961
 42
-0.0691457351576602
 10
23.55669147965203
 20
24.45214690973538
 42
0.0
 10
23.87268336880831
 20
24.30301132594532
 42
0.0
 10
23.92966333137497
 20
24.27454628498594
 42
0.0
 10
23.92681222654573
 20
24.26458842662463
 42
0.0
 10
23.81570340624216
 20
24.0169734068337
 42
0.0
 10
23.80288045679822
 20
24.01555085537325
 42
0.0
 10
23.4850778143697
 20
24.1836248640849
 42
-0.0871608329723595
 10
22.92285815074501
 20
23.08640063443545
 42
0.0
 10
22.93979624170969
 20
23.06947717984523
 42
0.0
 10
22.95673433261642
 20
23.04726996348575
 42
0.0
 10
22.96413596935961
 20
23.01660452300068
 42
0.0
 10
22.98531560542688
 20
22.89075428602607
 42
0.0
 10
22.9821414689759
 20
22.83470716775719
 42
0.0
 10
22.93238056009795
 20
22.79875095823183
 42
0.0
 10
22.86674896896511
 20
22.7702018262944
 42
0.0
 10
22.8392210599959
 20
22.76702736393884
 42
0.0
 10
22.70476969646918
 20
22.81461625901384
 42
0.0
 10
22.64467177686697
 20
22.83495944255355
 42
-0.0266213435957873
 10
21.93629160117075
 20
22.32151654252198
 42
0.0
 10
21.9152805032902
 20
22.30952646845356
 42
0.0
 10
21.90778055258511
 20
22.28256106266156
 42
0.0
 10
22.15426769661674
 20
21.71145928726888
 42
0.0
 10
22.1585654211924
 20
21.70217416138746
 42
0.0
 10
22.16643053800749
 20
21.69931504392411
 42
0.0
 10
22.18930960115937
 20
21.70360372105033
 42
0.0
 10
22.21505381395071
 20
21.70860016887424
 42
0.0
 10
22.23579805962458
 20
21.71217406616893
 42
0.0
 10
22.25510973047881
 20
21.71217406616893
 42
0.0
 10
22.27583993128451
 20
21.71217406616893
 42
0.0
 10
22.2915701649729
 20
21.71217406616893
 42
0.0
 10
22.30230043154393
 20
21.70860016887422
 42
0.0
 10
22.34950517747734
 20
21.62145313696363
 42
0.0
 10
22.3588028691704
 20
21.61359056254275
 42
0.0
 10
22.36810056086347
 20
21.61430534237422
 42
0.2705737166211906
 97
        2
330
DB
330
DF
 92
        7
 72
     1
 73
     1
 93
       22
 10
21.15003272379954
 20
21.43863777985222
 42
0.0
 10
21.138249093387
 20
21.46219046396561
 42
0.0
 10
20.90564129438713
 20
21.92711831891325
 42
0.0
 10
20.87490812754233
 20
21.94512209185734
 42
0.0
 10
20.83952914656811
 20
21.96083322429434
 42
-0.0783856514575091
 10
19.42851313943993
 20
22.0236497249582
 42
0.0
 10
19.4009992752808
 20
22.01580116601075
 42
0.0
 10
19.28701126041143
 20
21.92549368721781
 42
0.0
 10
19.2241324602046
 20
21.89800971635964
 42
0.0
 10
19.22806501867035
 20
21.81948208419021
 42
0.0
 10
19.28701126041141
 20
21.74881001730808
 42
0.0
 10
19.30667405256554
 20
21.70169764181015
 42
0.0
 10
19.302741494158
 20
21.65065397956766
 42
0.0
 10
19.22019990179707
 20
21.50537855998973
 42
0.0
 10
19.12194212061604
 20
21.27765823510845
 42
0.0
 10
19.13765830943612
 20
21.26587838941611
 42
0.1622782913589249
 10
21.00854488969753
 20
21.04600662348218
 42
0.0
 10
21.01639596164432
 20
21.21483472717367
 42
0.0
 10
21.02426107851761
 20
21.26980266888995
 42
0.0
 10
21.1185863012911
 20
21.30906648544022
 42
0.0
 10
21.15789784067283
 20
21.33655045629848
 42
0.0
 10
21.15789784067283
 20
21.37973855139116
 42
0.0
 97
        1
330
DC
 92
        7
 72
     1
 73
     1
 93
       13
 10
18.83134009800869
 20
27.92236716562161
 42
0.0
 10
18.83326424263669
 20
27.92428025213281
 42
0.0
 10
18.83306761471363
 20
27.92695016303298
 42
0.0
 10
18.55636999507009
 20
28.50147166830687
 42
0.0
 10
18.55260597484925
 20
28.50233360828099
 42
0.0
 10
18.54280266853789
 20
28.49714795296291
 42
0.3491007701398741
 10
16.68887608061648
 20
24.07039281235513
 42
0.0
 10
16.70282248676797
 20
24.06342342526717
 42
0.0
 10
16.72064932367207
 20
24.06342342526718
 42
0.0
 10
17.3145055689329
 20
24.23379726857556
 42
0.0
 10
17.33233240583701
 20
24.24270567564523
 42
0.0
 10
17.33344662886837
 20
24.24938698094748
 42
0.0
 10
17.33166054416226
 20
24.26590443950443
 42
-0.3420368169996672
 97
        2
330
D8
330
1E1
 92
        7
 72
     1
 73
     1
 93
       26
 10
21.39890749258894
 20
28.60305444226789
 42
0.0
 10
21.41475008510724
 20
28.66635446978
 42
0.0
 10
21.40418835678111
 20
28.74019398988412
 42
0.0
 10
21.43587354175952
 20
28.84041027427839
 42
0.0
 10
21.44379483804778
 20
28.87733353843168
 42
0.0
 10
21.39890749258896
 20
28.91425680258508
 42
0.0
 10
21.30386598240558
 20
28.95644981303452
 42
0.0
 10
21.18243419624602
 20
28.982826576393
 42
0.0
 10
21.08737864119441
 20
28.99601495807235
 42
0.0
 10
20.95274469461265
 20
29.00392658618466
 42
0.0831477154990647
 10
19.38453870931425
 20
28.83514052798228
 42
0.0
 10
19.37135059376032
 20
28.80085213651137
 42
0.0
 10
19.59310475429539
 20
28.23647769709316
 42
0.0
 10
19.61422821094765
 20
28.22856606991241
 42
0.0
 10
19.66703685263633
 20
28.24174744338939
 42
-0.1551968024411704
 10
21.29330425407944
 20
28.19427767844138
 42
0.0
 10
21.3883457642628
 20
28.18373117764691
 42
0.0
 10
21.43059267762555
 20
28.18900793214539
 42
0.0
 10
21.47283959098833
 20
28.19955443293999
 42
0.0
 10
21.49394900277229
 20
28.20746606012074
 42
0.0
 10
21.53091505194288
 20
28.29449396283564
 42
0.0
 10
21.47812045512222
 20
28.3235055998081
 42
0.0
 10
21.40154792468514
 20
28.37625211832315
 42
0.0
 10
21.36987678451647
 20
28.39998700079707
 42
0.0
 10
21.34083203157616
 20
28.44482189213125
 42
0.0
 10
21.35931505619056
 20
28.52393816766528
 42
0.0
 97
        1
330
D9
 75
     0
 76
     1
 47
0.0141496666377592
 98
        7
 10
23.25938621970435
 20
27.30161690758393
 10
23.76905900089974
 20
24.64147953469268
 10
20.05977321805368
 20
21.41535554312199
 10
17.90782104168944
 20
22.67467590223269
 10
17.90782104168944
 20
22.67467590223269
 10
16.78937230302966
 20
24.96692186136213
 10
20.05977321805368
 20
28.51848824936489
450
        0
451
        0
460
0.0
461
0.0
452
        1
462
1.0
453
        2
463
0.0
 63
     5
421
      255
463
1.0
 63
     7
421
 16777215
470
LINEAR
  0
HATCH
  5
28A
330
1F
100
AcDbEntity
  8
stonework
100
AcDbHatch
 10
0.0
 20
0.0
 30
0.0
210
0.0
220
0.0
230
1.0
  2
SOLID
 70
     1
 71
     1
 91
        1
 92
        7
 72
     1
 73
     1
 93
       14
 10
17.63521306954011
 20
23.53376262792319
 42
0.0
 10
17.62942477211189
 20
23.53401599736974
 42
0.0
 10
17.62299927297827
 20
23.53401599736974
 42
0.0
 10
17.6064767525292
 20
23.52851151764432
 42
0.0
 10
17.03461196308646
 20
23.28539842657157
 42
0.0
 10
17.0226789977808
 20
23.27897656843987
 42
0.0
 10
17.01625349864716
 20
23.27255471030818
 42
0.0
 10
17.01523789341313
 20
23.27052460127255
 42
0.131875602250602
 10
18.39524745855054
 20
21.8240861043463
 42
0.0
 10
18.41998044204706
 20
21.81857809779581
 42
0.0
 10
18.43683426386019
 20
21.82605525181975
 42
0.0
 10
18.7027454375177
 20
22.39473238383743
 42
0.0
 10
18.69899546216494
 20
22.40782265813414
 42
0.0
 10
18.68589161570458
 20
22.41904890054241
 42
-0.1204102613095276
 97
        2
330
1E2
330
D8
 75
     0
 76
     1
 47
0.0033166347659253
 98
        1
 10
17.90382505600511
 20
22.8151029564672
450
        0
451
        0
460
0.0
461
0.0
452
        1
462
1.0
453
        2
463
0.0
 63
     5
421
      255
463
1.0
 63
     7
421
 16777215
470
LINEAR
  0
ENDSEC
  0
SECTION
  2
OBJECTS
  0
DICTIONARY
  5
C
330
0
100
AcDbDictionary
281
     1
  3
ACAD_COLOR
350
73
  3
ACAD_GROUP
350
D
  3
ACAD_IMAGE_VARS
350
178
  3
ACAD_LAYOUT
350
1A
  3
ACAD_MATERIAL
350
72
  3
ACAD_MLINESTYLE
350
17
  3
ACAD_PLOTSETTINGS
350
19
  3
ACAD_PLOTSTYLENAME
350
E
  3
AcDbVariableDictionary
350
66
  3
ADE_QUERY_LIBRARY
350
16F
  3
ASE_INDEX_DICTIONARY
350
16C
  3
CyCurrentView
350
1AD
  3
CyPointControl
350
184
  3
CyPreferences
350
183
1001
ADE
1000
ADE02C004
1000
[Query]
1000
CaseSensitiveMatch=0
1000
SaveCurrQueryInSession=1
1000
MkSelSetWithQryObj=0
1000
ShowBlockAsInsPt=0
1000
CreateAssociativeHatchObjects=0
1000
ReferenceBoundaryForAreaLocation=1
1000
ShowImageAsBoundary=1
1000
DefaultJoinOperator=2
1000
ColorForAdd=red
1000
ColorForRemove=red
1000
BlockLocnForQuery=1
1000
TextLocnForQuery=1
1000
[Save Back]
1000
RedefineBlockDefinitions=1
1000
RedefineLayerDefinitions=1
1000
RedefineTextStyleDefinitions=1
1000
RemoveUnusedGroups=1
1000
EraseSavedBackObjects=1
1000
RemoveLockAfterSave=1
1000
CreateHistoryFileOfChanges=0
1000
CreateBackupFileOfSourceDwg=1
1000
DontAddObjectsToSaveSet=0
1000
MarkObjectsForEditingWithoutPrompting=0
1000
[Coordinate Transformation]
1000
RestoreLastActiveDwgsOnStartup=1
1000
ActivateDwgsOnAttach=1
1000
AdjustSizesAndScalesForChangesInUnits=1
1000
AdjustRotationsForMapDistortions=1
1000
AdjustSizesAndScalesForMapDistortions=1
1000
AdjustElevations=1
1000
AdjustZeroRotationObjects=1
1000
ReconnectDbOnWSOpen=1
1000
NoOfSQLConditionsInHistory=10
  0
DICTIONARY
  5
120
330
2
100
AcDbDictionary
280
     1
281
     1
  3
ACAD_LAYERSTATES
360
121
  0
DICTIONARY
  5
27A
330
1F
100
AcDbDictionary
280
     1
281
     1
  3
ACAD_SORTENTS
360
27B
  0
DICTIONARY
  5
73
102
{ACAD_REACTORS
330
C
102
}
330
C
100
AcDbDictionary
281
     1
  0
DICTIONARY
  5
D
102
{ACAD_REACTORS
330
C
102
}
330
C
100
AcDbDictionary
281
     1
  0
RASTERVARIABLES
  5
178
102
{ACAD_REACTORS
330
C
102
}
330
C
100
AcDbRasterVariables
 90
        0
 70
     1
 71
     1
 72
     5
  0
DICTIONARY
  5
1A
102
{ACAD_REACTORS
330
C
102
}
330
C
100
AcDbDictionary
281
     1
  3
Layout1
350
59
  3
Layout2
350
5E
  3
Model
350
22
  0
DICTIONARY
  5
72
102
{ACAD_REACTORS
330
C
102
}
330
C
100
AcDbDictionary
281
     1
  0
DICTIONARY
  5
17
102
{ACAD_REACTORS
330
C
102
}
330
C
100
AcDbDictionary
281
     1
  3
Standard
350
18
  0
DICTIONARY
  5
19
102
{ACAD_REACTORS
330
C
102
}
330
C
100
AcDbDictionary
281
     1
  0
ACDBDICTIONARYWDFLT
  5
E
102
{ACAD_REACTORS
330
C
102
}
330
C
100
AcDbDictionary
281
     1
  3
Normal
350
F
100
AcDbDictionaryWithDefault
340
F
  0
DICTIONARY
  5
66
102
{ACAD_REACTORS
330
C
102
}
330
C
100
AcDbDictionary
281
     1
  3
DIMASSOC
350
67
  3
HIDETEXT
350
6B
  0
DICTIONARY
  5
16F
102
{ACAD_REACTORS
330
C
102
}
330
C
100
AcDbDictionary
281
     1
  3
_CurrQry
350
294
  0
DICTIONARY
  5
16C
102
{ACAD_REACTORS
330
C
102
}
330
C
100
AcDbDictionary
281
     1
  3
ASEBlockHierarchyIndexRecord
350
16E
1001
DCO15
1040
1671364454.857
  0
CYCURRENTVIEW
  5
1AD
102
{ACAD_REACTORS
330
C
102
}
330
C
  0
CYPOINTCONTROL
  5
184
102
{ACAD_REACTORS
330
C
102
}
330
C
  0
CYPREFERENCE
  5
183
102
{ACAD_REACTORS
330
C
102
}
330
C
  0
DICTIONARY
  5
121
102
{ACAD_REACTORS
330
120
102
}
330
120
100
AcDbDictionary
281
     1
  0
SORTENTSTABLE
  5
27B
102
{ACAD_REACTORS
330
27A
102
}
330
27A
100
AcDbSortentsTable
330
1F
331
E0
  5
E2
331
F1
  5
F3
331
14F
  5
151
331
111
  5
113
331
168
  5
16A
331
DB
  5
DD
331
EC
  5
EE
331
14A
  5
14C
331
10C
  5
10E
331
FC
  5
FE
331
28A
  5
D8
331
145
  5
147
331
107
  5
109
331
E6
  5
E8
331
F7
  5
F9
331
155
  5
168
331
117
  5
141
331
140
  5
142
331
102
  5
104
331
E1
  5
E3
331
F2
  5
F4
331
150
  5
152
331
112
  5
114
331
169
  5
177
331
DC
  5
DE
331
14B
  5
14D
331
ED
  5
EF
331
10D
  5
10F
331
FD
  5
FF
331
E8
  5
EA
331
146
  5
148
331
108
  5
10A
331
E7
  5
E9
331
F8
  5
FA
331
141
  5
143
331
103
  5
105
331
E2
  5
E4
331
F3
  5
F5
331
151
  5
153
331
279
  5
D9
331
113
  5
115
331
16A
  5
1E1
331
DD
  5
DF
331
EE
  5
F0
331
14C
  5
14E
331
10E
  5
110
331
FE
  5
100
331
D8
  5
DA
331
147
  5
149
331
E9
  5
EB
331
109
  5
10B
331
F9
  5
FB
331
142
  5
144
331
104
  5
106
331
E3
  5
E5
331
F4
  5
F6
331
152
  5
154
331
1E1
  5
279
331
114
  5
116
331
DE
  5
E0
331
EF
  5
F1
331
14D
  5
14F
331
10F
  5
111
331
15E
  5
169
331
FF
  5
101
331
D9
  5
DB
331
EA
  5
EC
331
148
  5
14A
331
10A
  5
10C
331
FA
  5
FC
331
143
  5
145
331
105
  5
107
331
E4
  5
E6
331
F5
  5
F7
331
1E2
  5
28A
331
153
  5
155
331
115
  5
117
331
100
  5
102
331
DF
  5
E1
331
F0
  5
F2
331
14E
  5
150
331
110
  5
112
331
177
  5
1E2
331
DA
  5
DC
331
149
  5
14B
331
EB
  5
ED
331
10B
  5
10D
331
FB
  5
FD
331
144
  5
146
331
106
  5
108
331
E5
  5
E7
331
154
  5
15E
331
F6
  5
F8
331
116
  5
140
331
101
  5
103
  0
LAYOUT
  5
59
102
{ACAD_REACTORS
330
1A
102
}
330
1A
100
AcDbPlotSettings
  1

  2
None
  4

  6

 40
0.0
 41
0.0
 42
0.0
 43
0.0
 44
0.0
 45
0.0
 46
0.0
 47
0.0
 48
0.0
 49
0.0
140
0.0
141
0.0
142
1.0
143
1.0
 70
   688
 72
     0
 73
     0
 74
     5
  7

 75
    16
147
1.0
 76
     0
 77
     2
 78
   300
148
0.0
149
0.0
100
AcDbLayout
  1
Layout1
 70
     1
 71
     1
 10
0.0
 20
0.0
 11
12.0
 21
9.0
 12
0.0
 22
0.0
 32
0.0
 14
0.0
 24
0.0
 34
0.0
 15
0.0
 25
0.0
 35
0.0
146
0.0
 13
0.0
 23
0.0
 33
0.0
 16
1.0
 26
0.0
 36
0.0
 17
0.0
 27
1.0
 37
0.0
 76
     0
330
58
  0
LAYOUT
  5
5E
102
{ACAD_REACTORS
330
1A
102
}
330
1A
100
AcDbPlotSettings
  1

  2
None
  4

  6

 40
0.0
 41
0.0
 42
0.0
 43
0.0
 44
0.0
 45
0.0
 46
0.0
 47
0.0
 48
0.0
 49
0.0
140
0.0
141
0.0
142
1.0
143
1.0
 70
   688
 72
     0
 73
     0
 74
     5
  7

 75
    16
147
1.0
 76
     0
 77
     2
 78
   300
148
0.0
149
0.0
100
AcDbLayout
  1
Layout2
 70
     1
 71
     2
 10
0.0
 20
0.0
 11
12.0
 21
9.0
 12
0.0
 22
0.0
 32
0.0
 14
0.0
 24
0.0
 34
0.0
 15
0.0
 25
0.0
 35
0.0
146
0.0
 13
0.0
 23
0.0
 33
0.0
 16
1.0
 26
0.0
 36
0.0
 17
0.0
 27
1.0
 37
0.0
 76
     0
330
5D
  0
LAYOUT
  5
22
102
{ACAD_REACTORS
330
1A
102
}
330
1A
100
AcDbPlotSettings
  1

  2
none_device
  4
ANSI_A_(8.50_x_11.00_Inches)
  6

 40
6.349999904632568
 41
19.04999923706055
 42
6.350006103515625
 43
19.04998779296875
 44
215.8999938964844
 45
279.3999938964844
 46
0.0
 47
0.0
 48
0.0
 49
0.0
140
0.0
141
0.0
142
1.0
143
2.584895464708373
 70
 11952
 72
     0
 73
     1
 74
     0
  7

 75
     0
147
0.3868628397755418
 76
     0
 77
     2
 78
   300
148
0.0
149
0.0
100
AcDbLayout
  1
Model
 70
     1
 71
     0
 10
0.0
 20
0.0
 11
12.0
 21
9.0
 12
0.0
 22
0.0
 32
0.0
 14
0.0
 24
0.0
 34
0.0
 15
0.0
 25
0.0
 35
0.0
146
0.0
 13
0.0
 23
0.0
 33
0.0
 16
1.0
 26
0.0
 36
0.0
 17
0.0
 27
1.0
 37
0.0
 76
     0
330
1F
  0
MLINESTYLE
  5
18
102
{ACAD_REACTORS
330
17
102
}
330
17
100
AcDbMlineStyle
  2
STANDARD
 70
     0
  3

 62
   256
 51
90.0
 52
90.0
 71
     2
 49
0.5
 62
   256
  6
BYLAYER
 49
-0.5
 62
   256
  6
BYLAYER
  0
ACDBPLACEHOLDER
  5
F
102
{ACAD_REACTORS
330
E
102
}
330
E
  0
DICTIONARYVAR
  5
67
102
{ACAD_REACTORS
330
66
102
}
330
66
100
DictionaryVariables
280
     0
  1
2
  0
DICTIONARYVAR
  5
6B
102
{ACAD_REACTORS
330
66
102
}
330
66
100
DictionaryVariables
280
     0
  1
1
  0
XRECORD
  5
294
102
{ACAD_REACTORS
330
16F
102
}
330
16F
100
AcDbXrecord
280
     1
1000
ADE02C001
1070
     1
1070
     0
1002
{
1002
}
1002
{
1002
}
1002
{
1002
}
1000

  0
XRECORD
  5
16E
102
{ACAD_REACTORS
330
16C
102
}
330
16C
100
AcDbXrecord
280
     1
330
177
  0
ENDSEC
  0
EOF
