  0
SECTION
  2
HEADER
  9
$ACADVER
  1
AC1018
  9
$ACADMAINTVER
 70
    76
  9
$DWGCODEPAGE
  3
ANSI_1252
  9
$LASTSAVEDBY
  1
Autodesk
  9
$INSBASE
 10
0.0
 20
0.0
 30
0.0
  9
$EXTMIN
 10
303.3049019385312
 20
531.0911682891546
 30
-0.0000000349181948
  9
$EXTMAX
 10
1264.262322297058
 20
986.0800293894781
 30
0.0000000814935746
  9
$LIMMIN
 10
0.0
 20
0.0
  9
$LIMMAX
 10
420.0
 20
297.0
  9
$ORTHOMODE
 70
     1
  9
$REGENMODE
 70
     1
  9
$FILLMODE
 70
     1
  9
$QTEXTMODE
 70
     0
  9
$MIRRTEXT
 70
     0
  9
$LTSCALE
 40
1.0
  9
$ATTMODE
 70
     1
  9
$TEXTSIZE
 40
2.5
  9
$TRACEWID
 40
1.0
  9
$TEXTSTYLE
  7
Standard
  9
$CLAYER
  8
trace
  9
$CELTYPE
  6
ByLayer
  9
$CECOLOR
 62
   256
  9
$CELTSCALE
 40
1.0
  9
$DISPSILH
 70
     0
  9
$DIMSCALE
 40
1.0
  9
$DIMASZ
 40
2.5
  9
$DIMEXO
 40
0.625
  9
$DIMDLI
 40
3.75
  9
$DIMRND
 40
0.0
  9
$DIMDLE
 40
0.0
  9
$DIMEXE
 40
1.25
  9
$DIMTP
 40
0.0
  9
$DIMTM
 40
0.0
  9
$DIMTXT
 40
2.5
  9
$DIMCEN
 40
2.5
  9
$DIMTSZ
 40
0.0
  9
$DIMTOL
 70
     0
  9
$DIMLIM
 70
     0
  9
$DIMTIH
 70
     0
  9
$DIMTOH
 70
     0
  9
$DIMSE1
 70
     0
  9
$DIMSE2
 70
     0
  9
$DIMTAD
 70
     1
  9
$DIMZIN
 70
     8
  9
$DIMBLK
  1

  9
$DIMASO
 70
     1
  9
$DIMSHO
 70
     1
  9
$DIMPOST
  1

  9
$DIMAPOST
  1

  9
$DIMALT
 70
     0
  9
$DIMALTD
 70
     3
  9
$DIMALTF
 40
0.03937007874016
  9
$DIMLFAC
 40
1.0
  9
$DIMTOFL
 70
     1
  9
$DIMTVP
 40
0.0
  9
$DIMTIX
 70
     0
  9
$DIMSOXD
 70
     0
  9
$DIMSAH
 70
     0
  9
$DIMBLK1
  1

  9
$DIMBLK2
  1

  9
$DIMSTYLE
  2
ISO-25
  9
$DIMCLRD
 70
     0
  9
$DIMCLRE
 70
     0
  9
$DIMCLRT
 70
     0
  9
$DIMTFAC
 40
1.0
  9
$DIMGAP
 40
0.625
  9
$DIMJUST
 70
     0
  9
$DIMSD1
 70
     0
  9
$DIMSD2
 70
     0
  9
$DIMTOLJ
 70
     0
  9
$DIMTZIN
 70
     8
  9
$DIMALTZ
 70
     0
  9
$DIMALTTZ
 70
     0
  9
$DIMUPT
 70
     0
  9
$DIMDEC
 70
     2
  9
$DIMTDEC
 70
     2
  9
$DIMALTU
 70
     2
  9
$DIMALTTD
 70
     3
  9
$DIMTXSTY
  7
Standard
  9
$DIMAUNIT
 70
     0
  9
$DIMADEC
 70
     0
  9
$DIMALTRND
 40
0.0
  9
$DIMAZIN
 70
     0
  9
$DIMDSEP
 70
    44
  9
$DIMATFIT
 70
     3
  9
$DIMFRAC
 70
     0
  9
$DIMLDRBLK
  1

  9
$DIMLUNIT
 70
     2
  9
$DIMLWD
 70
    -2
  9
$DIMLWE
 70
    -2
  9
$DIMTMOVE
 70
     0
  9
$LUNITS
 70
     2
  9
$LUPREC
 70
     4
  9
$SKETCHINC
 40
1.0
  9
$FILLETRAD
 40
0.0
  9
$AUNITS
 70
     0
  9
$AUPREC
 70
     0
  9
$MENU
  1
.
  9
$ELEVATION
 40
0.0
  9
$PELEVATION
 40
0.0
  9
$THICKNESS
 40
0.0
  9
$LIMCHECK
 70
     0
  9
$CHAMFERA
 40
0.0
  9
$CHAMFERB
 40
0.0
  9
$CHAMFERC
 40
0.0
  9
$CHAMFERD
 40
0.0
  9
$SKPOLY
 70
     0
  9
$TDCREATE
 40
2453700.591549421
  9
$TDUCREATE
 40
2453700.591549421
  9
$TDUPDATE
 40
2453749.476833415
  9
$TDUUPDATE
 40
2453749.476833415
  9
$TDINDWG
 40
0.1118196528
  9
$TDUSRTIMER
 40
0.1118109606
  9
$USRTIMER
 70
     1
  9
$ANGBASE
 50
0.0
  9
$ANGDIR
 70
     0
  9
$PDMODE
 70
     0
  9
$PDSIZE
 40
0.0
  9
$PLINEWID
 40
0.0
  9
$SPLFRAME
 70
     0
  9
$SPLINETYPE
 70
     6
  9
$SPLINESEGS
 70
     8
  9
$HANDSEED
  5
32B
  9
$SURFTAB1
 70
     6
  9
$SURFTAB2
 70
     6
  9
$SURFTYPE
 70
     6
  9
$SURFU
 70
     6
  9
$SURFV
 70
     6
  9
$UCSBASE
  2

  9
$UCSNAME
  2

  9
$UCSORG
 10
0.0
 20
0.0
 30
0.0
  9
$UCSXDIR
 10
1.0
 20
0.0
 30
0.0
  9
$UCSYDIR
 10
0.0
 20
1.0
 30
0.0
  9
$UCSORTHOREF
  2

  9
$UCSORTHOVIEW
 70
     0
  9
$UCSORGTOP
 10
0.0
 20
0.0
 30
0.0
  9
$UCSORGBOTTOM
 10
0.0
 20
0.0
 30
0.0
  9
$UCSORGLEFT
 10
0.0
 20
0.0
 30
0.0
  9
$UCSORGRIGHT
 10
0.0
 20
0.0
 30
0.0
  9
$UCSORGFRONT
 10
0.0
 20
0.0
 30
0.0
  9
$UCSORGBACK
 10
0.0
 20
0.0
 30
0.0
  9
$PUCSBASE
  2

  9
$PUCSNAME
  2

  9
$PUCSORG
 10
0.0
 20
0.0
 30
0.0
  9
$PUCSXDIR
 10
1.0
 20
0.0
 30
0.0
  9
$PUCSYDIR
 10
0.0
 20
1.0
 30
0.0
  9
$PUCSORTHOREF
  2

  9
$PUCSORTHOVIEW
 70
     0
  9
$PUCSORGTOP
 10
0.0
 20
0.0
 30
0.0
  9
$PUCSORGBOTTOM
 10
0.0
 20
0.0
 30
0.0
  9
$PUCSORGLEFT
 10
0.0
 20
0.0
 30
0.0
  9
$PUCSORGRIGHT
 10
0.0
 20
0.0
 30
0.0
  9
$PUCSORGFRONT
 10
0.0
 20
0.0
 30
0.0
  9
$PUCSORGBACK
 10
0.0
 20
0.0
 30
0.0
  9
$USERI1
 70
     0
  9
$USERI2
 70
     0
  9
$USERI3
 70
     0
  9
$USERI4
 70
     0
  9
$USERI5
 70
     0
  9
$USERR1
 40
0.0
  9
$USERR2
 40
0.0
  9
$USERR3
 40
0.0
  9
$USERR4
 40
0.0
  9
$USERR5
 40
0.0
  9
$WORLDVIEW
 70
     1
  9
$SHADEDGE
 70
     3
  9
$SHADEDIF
 70
    70
  9
$TILEMODE
 70
     1
  9
$MAXACTVP
 70
    64
  9
$PINSBASE
 10
0.0
 20
0.0
 30
0.0
  9
$PLIMCHECK
 70
     0
  9
$PEXTMIN
 10
0.0
 20
0.0
 30
0.0
  9
$PEXTMAX
 10
0.0
 20
0.0
 30
0.0
  9
$PLIMMIN
 10
0.0
 20
0.0
  9
$PLIMMAX
 10
12.0
 20
9.0
  9
$UNITMODE
 70
     0
  9
$VISRETAIN
 70
     1
  9
$PLINEGEN
 70
     0
  9
$PSLTSCALE
 70
     1
  9
$TREEDEPTH
 70
  3020
  9
$CMLSTYLE
  2
Standard
  9
$CMLJUST
 70
     0
  9
$CMLSCALE
 40
20.0
  9
$PROXYGRAPHICS
 70
     1
  9
$MEASUREMENT
 70
     1
  9
$CELWEIGHT
370
    -1
  9
$ENDCAPS
280
     0
  9
$JOINSTYLE
280
     0
  9
$LWDISPLAY
290
     0
  9
$INSUNITS
 70
     4
  9
$HYPERLINKBASE
  1

  9
$STYLESHEET
  1

  9
$XEDIT
290
     1
  9
$CEPSNTYPE
380
     0
  9
$PSTYLEMODE
290
     1
  9
$FINGERPRINTGUID
  2
{7447E3F7-9928-483A-8AC8-9A54A15FEEF1}
  9
$VERSIONGUID
  2
{2E3D7B23-2FBD-44E0-AB02-6EDF8D548840}
  9
$EXTNAMES
290
     1
  9
$PSVPSCALE
 40
0.0
  9
$OLESTARTUP
290
     0
  9
$SORTENTS
280
   127
  9
$INDEXCTL
280
     0
  9
$HIDETEXT
280
     1
  9
$XCLIPFRAME
290
     0
  9
$HALOGAP
280
     0
  9
$OBSCOLOR
 70
   257
  9
$OBSLTYPE
280
     0
  9
$INTERSECTIONDISPLAY
280
     0
  9
$INTERSECTIONCOLOR
 70
   257
  9
$DIMASSOC
280
     2
  9
$PROJECTNAME
  1

  0
ENDSEC
  0
SECTION
  2
CLASSES
  0
CLASS
  1
ACDBDICTIONARYWDFLT
  2
AcDbDictionaryWithDefault
  3
ObjectDBX Classes
 90
        0
 91
        1
280
     0
281
     0
  0
CLASS
  1
DICTIONARYVAR
  2
AcDbDictionaryVar
  3
ObjectDBX Classes
 90
        0
 91
        3
280
     0
281
     0
  0
CLASS
  1
TABLESTYLE
  2
AcDbTableStyle
  3
ObjectDBX Classes
 90
     2047
 91
        1
280
     0
281
     0
  0
CLASS
  1
RASTERVARIABLES
  2
AcDbRasterVariables
  3
ISM
 90
        0
 91
        1
280
     0
281
     0
  0
CLASS
  1
IMAGEDEF
  2
AcDbRasterImageDef
  3
ISM
 90
        0
 91
        4
280
     0
281
     0
  0
CLASS
  1
IMAGEDEF_REACTOR
  2
AcDbRasterImageDefReactor
  3
ISM
 90
        1
 91
        6
280
     0
281
     0
  0
CLASS
  1
IMAGE
  2
AcDbRasterImage
  3
ISM
 90
      127
 91
        6
280
     0
281
     1
  0
CLASS
  1
SORTENTSTABLE
  2
AcDbSortentsTable
  3
ObjectDBX Classes
 90
        0
 91
        2
280
     0
281
     0
  0
CLASS
  1
ACAD_EVALUATION_GRAPH
  2
AcDbEvalGraph
  3
ObjectDBX Classes
 90
     1153
 91
        0
280
     0
281
     0
  0
CLASS
  1
ACAECUSTOBJ
  2
AcAeEditorObj
  3
AcAeEditorObj
 90
     1024
 91
        0
280
     0
281
     0
  0
ENDSEC
  0
SECTION
  2
TABLES
  0
TABLE
  2
VPORT
  5
8
330
0
100
AcDbSymbolTable
 70
     2
  0
VPORT
  5
32A
330
8
100
AcDbSymbolTableRecord
100
AcDbViewportTableRecord
  2
*Active
 70
     0
 10
0.0
 20
0.0
 11
1.0
 21
1.0
 12
556.8752458147462
 22
551.4132064113003
 13
0.0
 23
0.0
 14
10.0
 24
10.0
 15
10.0
 25
10.0
 16
0.0
 26
0.0
 36
1.0
 17
0.0
 27
0.0
 37
0.0
 40
0.2451107540591693
 41
1.739322533136966
 42
50.0
 43
0.0
 44
0.0
 50
0.0
 51
0.0
 71
     0
 72
  1000
 73
     1
 74
     3
 75
     0
 76
     0
 77
     0
 78
     0
281
     0
 65
     1
110
0.0
120
0.0
130
0.0
111
1.0
121
0.0
131
0.0
112
0.0
122
1.0
132
0.0
 79
     0
146
0.0
  0
ENDTAB
  0
TABLE
  2
LTYPE
  5
5
330
0
100
AcDbSymbolTable
 70
     2
  0
LTYPE
  5
14
330
5
100
AcDbSymbolTableRecord
100
AcDbLinetypeTableRecord
  2
ByBlock
 70
     0
  3

 72
    65
 73
     0
 40
0.0
  0
LTYPE
  5
15
330
5
100
AcDbSymbolTableRecord
100
AcDbLinetypeTableRecord
  2
ByLayer
 70
     0
  3

 72
    65
 73
     0
 40
0.0
  0
LTYPE
  5
16
330
5
100
AcDbSymbolTableRecord
100
AcDbLinetypeTableRecord
  2
Continuous
 70
     0
  3
Solid line
 72
    65
 73
     0
 40
0.0
  0
ENDTAB
  0
TABLE
  2
LAYER
  5
2
102
{ACAD_XDICTIONARY
360
1D2
102
}
330
0
100
AcDbSymbolTable
 70
     4
  0
LAYER
  5
10
330
2
100
AcDbSymbolTableRecord
100
AcDbLayerTableRecord
  2
0
 70
     0
 62
    -7
  6
Continuous
370
    -3
390
F
  0
LAYER
  5
1D0
330
2
100
AcDbSymbolTableRecord
100
AcDbLayerTableRecord
  2
trace
 70
     0
 62
     7
  6
Continuous
370
    -3
390
F
1001
AcAecLayerStandard
1000

1000

  0
LAYER
  5
2F1
330
2
100
AcDbSymbolTableRecord
100
AcDbLayerTableRecord
  2
text
 70
     0
 62
     7
  6
Continuous
370
    -3
390
F
  0
LAYER
  5
2F2
330
2
100
AcDbSymbolTableRecord
100
AcDbLayerTableRecord
  2
arrow
 70
     0
 62
     7
  6
Continuous
370
     9
390
F
  0
ENDTAB
  0
TABLE
  2
STYLE
  5
3
330
0
100
AcDbSymbolTable
 70
     3
  0
STYLE
  5
11
330
3
100
AcDbSymbolTableRecord
100
AcDbTextStyleTableRecord
  2
Standard
 70
     0
 40
0.0
 41
1.0
 50
0.0
 71
     0
 42
2.5
  3
txt
  4

  0
STYLE
  5
2F3
330
3
100
AcDbSymbolTableRecord
100
AcDbTextStyleTableRecord
  2
ROMANS
 70
     0
 40
0.0
 41
1.0
 50
0.0
 71
     0
 42
0.2
  3
ARIAL.TTF
  4

1001
ACAD
1000
Arial
1071
       34
  0
ENDTAB
  0
TABLE
  2
VIEW
  5
6
330
0
100
AcDbSymbolTable
 70
     0
  0
ENDTAB
  0
TABLE
  2
UCS
  5
7
330
0
100
AcDbSymbolTable
 70
     0
  0
ENDTAB
  0
TABLE
  2
APPID
  5
9
330
0
100
AcDbSymbolTable
 70
     7
  0
APPID
  5
12
330
9
100
AcDbSymbolTableRecord
100
AcDbRegAppTableRecord
  2
ACAD
 70
     0
  0
APPID
  5
9E
330
9
100
AcDbSymbolTableRecord
100
AcDbRegAppTableRecord
  2
ACAD_PSEXT
 70
     0
  0
APPID
  5
106
330
9
100
AcDbSymbolTableRecord
100
AcDbRegAppTableRecord
  2
ACAD_EXEMPT_FROM_CAD_STANDARDS
 70
     0
  0
APPID
  5
1D1
330
9
100
AcDbSymbolTableRecord
100
AcDbRegAppTableRecord
  2
AcAecLayerStandard
 70
     0
  0
APPID
  5
1E3
330
9
100
AcDbSymbolTableRecord
100
AcDbRegAppTableRecord
  2
ADE
 70
     0
  0
APPID
  5
270
330
9
100
AcDbSymbolTableRecord
100
AcDbRegAppTableRecord
  2
ACAUTHENVIRON
 70
     0
  0
APPID
  5
2F4
330
9
100
AcDbSymbolTableRecord
100
AcDbRegAppTableRecord
  2
RAK
 70
     0
  0
ENDTAB
  0
TABLE
  2
DIMSTYLE
  5
A
330
0
100
AcDbSymbolTable
 70
     4
100
AcDbDimStyleTable
 71
     1
340
27
  0
DIMSTYLE
105
27
330
A
100
AcDbSymbolTableRecord
100
AcDbDimStyleTableRecord
  2
ISO-25
 70
     0
 41
2.5
 42
0.625
 43
3.75
 44
1.25
 73
     0
 74
     0
 77
     1
 78
     8
140
2.5
141
2.5
143
0.03937007874016
147
0.625
171
     3
172
     1
271
     2
272
     2
274
     3
278
    44
283
     0
284
     8
340
11
  0
DIMSTYLE
105
1E2
330
A
100
AcDbSymbolTableRecord
100
AcDbDimStyleTableRecord
  2
Standard
 70
     0
340
11
  0
ENDTAB
  0
TABLE
  2
BLOCK_RECORD
  5
1
330
0
100
AcDbSymbolTable
 70
     5
  0
BLOCK_RECORD
  5
1F
102
{ACAD_XDICTIONARY
360
194
102
}
330
1
100
AcDbSymbolTableRecord
100
AcDbBlockTableRecord
  2
*Model_Space
340
22
  0
BLOCK_RECORD
  5
D2
330
1
100
AcDbSymbolTableRecord
100
AcDbBlockTableRecord
  2
*Paper_Space
340
D3
  0
BLOCK_RECORD
  5
D6
330
1
100
AcDbSymbolTableRecord
100
AcDbBlockTableRecord
  2
*Paper_Space0
340
D7
  0
BLOCK_RECORD
  5
24D
102
{ACAD_XDICTIONARY
360
256
102
}
330
1
100
AcDbSymbolTableRecord
100
AcDbBlockTableRecord
  2
A$C647702B6
340
0
1001
ACAD
1000
DesignCenter Data
1002
{
1070
     1
1070
     6
1002
}
  0
BLOCK_RECORD
  5
2F5
330
1
100
AcDbSymbolTableRecord
100
AcDbBlockTableRecord
  2
A$C6D5441AB
340
0
1001
ACAD
1000
DesignCenter Data
1002
{
1070
     1
1070
     0
1002
}
  0
ENDTAB
  0
ENDSEC
  0
SECTION
  2
BLOCKS
  0
BLOCK
  5
20
330
1F
100
AcDbEntity
  8
0
100
AcDbBlockBegin
  2
*Model_Space
 70
     0
 10
0.0
 20
0.0
 30
0.0
  3
*Model_Space
  1

  0
ENDBLK
  5
21
330
1F
100
AcDbEntity
  8
0
100
AcDbBlockEnd
  0
BLOCK
  5
D4
330
D2
100
AcDbEntity
 67
     1
  8
0
100
AcDbBlockBegin
  2
*Paper_Space
 70
     0
 10
0.0
 20
0.0
 30
0.0
  3
*Paper_Space
  1

  0
ENDBLK
  5
D5
330
D2
100
AcDbEntity
 67
     1
  8
0
100
AcDbBlockEnd
  0
BLOCK
  5
D8
330
D6
100
AcDbEntity
 67
     1
  8
0
100
AcDbBlockBegin
  2
*Paper_Space0
 70
     0
 10
0.0
 20
0.0
 30
0.0
  3
*Paper_Space0
  1

  0
ENDBLK
  5
D9
330
D6
100
AcDbEntity
 67
     1
  8
0
100
AcDbBlockEnd
  0
BLOCK
  5
258
330
24D
100
AcDbEntity
  8
0
100
AcDbBlockBegin
  2
A$C647702B6
 70
     0
 10
0.0
 20
0.0
 30
0.0
  3
A$C647702B6
  1

  0
LWPOLYLINE
  5
24E
330
24D
100
AcDbEntity
  8
0
  6
Continuous
100
AcDbPolyline
 90
        5
 70
     0
 43
0.0
 10
-0.0000000074883246
 20
-0.000000003085205
 10
0.4199999925099292
 20
-0.000000003085205
 10
0.4199999925099292
 20
0.2969999969143657
 10
-0.0000000074883246
 20
0.2969999969143657
 10
-0.0000000074883246
 20
-0.000000003085205
  0
LWPOLYLINE
  5
24F
330
24D
100
AcDbEntity
  8
0
  6
Continuous
100
AcDbPolyline
 90
        4
 70
     1
 43
0.0
 10
0.0225400287731645
 20
0.2757280550356711
 10
0.3988032532238321
 20
0.2757280550356711
 10
0.3988032532238321
 20
0.044321122349885
 10
0.0225400287731645
 20
0.044321122349885
  0
IMAGE
  5
250
330
24D
100
AcDbEntity
  8
0
  6
Continuous
 92
      140
310
8C0000000100000084000000060000000500000000A047FDE4C1D73F0080EC6CB48E7B3F000000000000000000A047FDE4C1D73F5B9BC433EC6AA43F0000000000000000F3912B96977ED93F5B9BC433EC6AA43F0000000000000000F3912B96977ED93F0080EC6CB48E7B3F000000000000000000A047FDE4C1D73F0080EC
310
6CB48E7B3F0000000000000000
100
AcDbRasterImage
 90
        0
 10
0.3712093804774668
 20
0.0067278907652337
 30
0.0
 11
0.0000065879102603
 21
0.0
 31
0.0
 12
0.0
 22
0.0000065879102603
 32
0.0
 13
4120.0
 23
5032.0
340
1F2
 70
     7
280
     0
281
    50
282
    50
283
     0
360
251
 71
     1
 91
        2
 14
-0.5
 24
-0.5
 14
4119.5
 24
5031.5
  0
IMAGE
  5
252
330
24D
100
AcDbEntity
  8
0
  6
Continuous
 92
      140
310
8C0000000100000084000000060000000500000000A01C4E8FE7D33F0080ECC355FA7E3F000000000000000000A01C4E8FE7D33F4CE979A6BC2C9A3F0000000000000000247A9203537FD73F4CE979A6BC2C9A3F0000000000000000247A9203537FD73F0080ECC355FA7E3F000000000000000000A01C4E8FE7D33F0080EC
310
C355FA7E3F0000000000000000
100
AcDbRasterImage
 90
        0
 10
0.3110082876978595
 20
0.0075629568298439
 30
0.0
 11
0.0000070032396725
 21
0.0
 31
0.0
 12
0.0
 22
0.0000070032396725
 32
0.0
 13
8016.0
 23
2570.0
340
1F1
 70
     7
280
     0
281
    50
282
    50
283
     0
360
253
 71
     1
 91
        2
 14
-0.5
 24
-0.5
 14
8015.500000000001
 24
2569.5
  0
MTEXT
  5
254
330
24D
100
AcDbEntity
  8
0
  6
Continuous
100
AcDbMText
 10
0.0224888721700154
 20
0.0389570019649739
 30
0.0
 40
0.0035000000000006
 41
0.0659204012204212
 71
     1
 72
     5
  1
{\fArial|b0|i0|c0|p34;\H1.429x;Birchen Barn\H0.9002x;\P\H0.7776x;Trefeglwys\PMontgomeryshire}
 73
     1
 44
1.0
1001
ACAD
1000
ACAD_MTEXT_DEFINED_HEIGHT_BEGIN
1070
    46
1040
0.0
1000
ACAD_MTEXT_DEFINED_HEIGHT_END
  0
MTEXT
  5
255
330
24D
100
AcDbEntity
  8
0
  6
Continuous
100
AcDbMText
 10
0.1048292646833033
 20
0.0379950114072756
 30
0.0
 40
0.0035000000000006
 41
0.0854788502322353
 71
     1
 72
     5
  1
{\fArial|b0|i0|c0|p34;NPRN 43418\PGrid ref. SN9653190674\PSurveyed: July 2005 SF & RFS\PPrint scale: 1:100 at A3}
 73
     1
 44
1.0
1001
ACAD
1000
ACAD_MTEXT_DEFINED_HEIGHT_BEGIN
1070
    46
1040
0.0
1000
ACAD_MTEXT_DEFINED_HEIGHT_END
  0
ENDBLK
  5
259
330
24D
100
AcDbEntity
  8
0
100
AcDbBlockEnd
  0
BLOCK
  5
2F7
330
2F5
100
AcDbEntity
  8
0
100
AcDbBlockBegin
  2
A$C6D5441AB
 70
     0
 10
0.0
 20
0.0
 30
0.0
  3
A$C6D5441AB
  1

  0
MTEXT
  5
2F6
330
2F5
100
AcDbEntity
  8
text
100
AcDbMText
 10
46.72378709132317
 20
2.781333300838014
 30
0.0
 40
0.8
 41
1055.442477509263
 71
     3
 72
     5
  1
{\fArial|b0|i0|c0|p34;Crown Copyright: Royal Commission on the Ancient & Historical Monuments of Wales, 2005.^JHawlfraint y Goron: Comisiwn Brenhinol Henebion Cymru, 2005.}
  7
ROMANS
 73
     1
 44
1.0
  0
ENDBLK
  5
2F8
330
2F5
100
AcDbEntity
  8
0
100
AcDbBlockEnd
  0
ENDSEC
  0
SECTION
  2
ENTITIES
  0
IMAGE
  5
E9
330
1F
100
AcDbEntity
  8
0
 92
      140
310
8C00000001000000840000000600000005000000DDE7C3A8AA218740DC1D0792F305854000000000000000002A48323377F57240FF0201AD3121854000000000000000007F69C4B21C1C73407EBDECA228D08E40000000000000000088F88C68FD3487405BD8F287EAB48E400000000000000000DDE7C3A8AA218740DC1D07
310
92F30585400000000000000000
100
AcDbRasterImage
 90
        0
 10
740.2083297066816
 20
672.7439308696735
 30
0.0
 11
0.0006599466841914
 21
0.0846640946022485
 31
0.0
 12
-0.0846640946022485
 22
0.0006599466841914
 32
0.0
 13
3660.0
 23
5160.0
340
E7
 70
     7
280
     0
281
    50
282
    50
283
     0
360
E8
 71
     1
 91
        2
 14
-0.5
 24
-0.5
 14
3659.5
 24
5159.5
  0
IMAGE
  5
EC
330
1F
100
AcDbEntity
  8
0
 92
      140
310
8C000000010000008400000006000000050000007CDF6699BDC093408055FD3C299980400000000000000000211B5DF570DA89408055FD3C299980400000000000000000211B5DF570DA894057F96D7A33488A4000000000000000007CDF6699BDC0934057F96D7A33488A4000000000000000007CDF6699BDC093408055FD
310
3C299980400000000000000000
100
AcDbRasterImage
 90
        0
 10
1264.185155494108
 20
531.1451358596532
 30
0.0
 11
0.0
 21
0.0846666666666667
 31
0.0
 12
-0.0846666666666667
 22
0.0
 32
0.0
 13
3660.0
 23
5160.0
340
EA
 70
     7
280
     0
281
    50
282
    50
283
     0
360
EB
 71
     1
 91
        2
 14
-0.5
 24
-0.5
 14
3659.5
 24
5159.5
  0
LWPOLYLINE
  5
F7
330
1F
100
AcDbEntity
  8
trace
100
AcDbPolyline
 90
        4
 70
     1
 43
0.0
 10
556.7623072864749
 20
551.4957999320933
 10
556.7668016222523
 20
551.4957999320933
 10
556.7668016222523
 20
551.4114909903445
 10
556.7623072864749
 20
551.4114909903445
  0
LWPOLYLINE
  5
F8
330
1F
100
AcDbEntity
  8
trace
100
AcDbPolyline
 90
        4
 70
     1
 43
0.0
 10
556.8394024311159
 20
551.4952816401843
 10
556.8437239082784
 20
551.4952816401843
 10
556.8437239082784
 20
551.4102816401844
 10
556.8394024311159
 20
551.4102816401844
  0
LWPOLYLINE
  5
F9
330
1F
100
AcDbEntity
  8
trace
100
AcDbPolyline
 90
        4
 70
     1
 43
0.0
 10
556.8008548597776
 20
551.4952816401843
 10
556.8051763369402
 20
551.4952816401843
 10
556.8051763369402
 20
551.4102816401844
 10
556.8008548597776
 20
551.4102816401844
  0
LWPOLYLINE
  5
FA
330
1F
100
AcDbEntity
  8
trace
100
AcDbPolyline
 90
        4
 70
     1
 43
0.0
 10
556.8781228630338
 20
551.4952816401843
 10
556.8824443401963
 20
551.4952816401843
 10
556.8824443401963
 20
551.4102816401844
 10
556.8781228630338
 20
551.4102816401844
  0
LWPOLYLINE
  5
FB
330
1F
100
AcDbEntity
  8
trace
100
AcDbPolyline
 90
        4
 70
     1
 43
0.0
 10
556.9163247191068
 20
551.4952816401843
 10
556.9206461962692
 20
551.4952816401843
 10
556.9206461962692
 20
551.4102816401844
 10
556.9163247191068
 20
551.4102816401844
  0
LWPOLYLINE
  5
FC
330
1F
100
AcDbEntity
  8
trace
100
AcDbPolyline
 90
        4
 70
     1
 43
0.0
 10
556.9550451510247
 20
551.4952816401843
 10
556.9593666281871
 20
551.4952816401843
 10
556.9593666281871
 20
551.4102816401844
 10
556.9550451510247
 20
551.4102816401844
  0
LWPOLYLINE
  5
FF
330
1F
100
AcDbEntity
  8
trace
100
AcDbPolyline
 90
        4
 70
     1
 43
0.0
 10
556.7668016222523
 20
551.4560648787048
 10
556.8008548597776
 20
551.4560648787048
 10
556.8008548597776
 20
551.4516617838794
 10
556.7668016222523
 20
551.4516617838794
  0
LWPOLYLINE
  5
101
330
1F
100
AcDbEntity
  8
trace
100
AcDbPolyline
 90
        4
 70
     1
 43
0.0
 10
556.8051763369402
 20
551.4560648787048
 10
556.8394024311159
 20
551.4560648787048
 10
556.8394024311159
 20
551.4516617838794
 10
556.8051763369402
 20
551.4516617838794
  0
LWPOLYLINE
  5
102
330
1F
100
AcDbEntity
  8
trace
100
AcDbPolyline
 90
        4
 70
     1
 43
0.0
 10
556.8437239082784
 20
551.4560648787048
 10
556.8781228630338
 20
551.4560648787048
 10
556.8781228630338
 20
551.4516617838794
 10
556.8437239082784
 20
551.4516617838794
  0
LWPOLYLINE
  5
10E
330
1F
100
AcDbEntity
  8
trace
100
AcDbPolyline
 90
        4
 70
     1
 43
0.0
 10
556.8824443401963
 20
551.4560648787048
 10
556.9163247191068
 20
551.4560648787048
 10
556.9163247191068
 20
551.4516617838794
 10
556.8824443401963
 20
551.4516617838794
  0
LWPOLYLINE
  5
10F
330
1F
100
AcDbEntity
  8
trace
100
AcDbPolyline
 90
        4
 70
     1
 43
0.0
 10
556.9206461962692
 20
551.4560648787048
 10
556.9550451510247
 20
551.4560648787048
 10
556.9550451510247
 20
551.4516617838794
 10
556.9206461962692
 20
551.4516617838794
  0
LWPOLYLINE
  5
115
330
1F
100
AcDbEntity
  8
trace
100
AcDbPolyline
 90
        4
 70
     1
 43
0.0
 10
556.7668016222523
 20
551.4879758382766
 10
556.8008548597776
 20
551.4879758382766
 10
556.8008548597776
 20
551.4862640035122
 10
556.7668016222523
 20
551.4862640035122
  0
LWPOLYLINE
  5
116
330
1F
100
AcDbEntity
  8
trace
100
AcDbPolyline
 90
        4
 70
     1
 43
0.0
 10
556.8051763369402
 20
551.4879758382766
 10
556.8394024311159
 20
551.4879758382766
 10
556.8394024311159
 20
551.4862640035122
 10
556.8051763369402
 20
551.4862640035122
  0
LWPOLYLINE
  5
118
330
1F
100
AcDbEntity
  8
trace
100
AcDbPolyline
 90
        4
 70
     1
 43
0.0
 10
556.8437239082784
 20
551.4879758382766
 10
556.8781228630338
 20
551.4879758382766
 10
556.8781228630338
 20
551.4862640035122
 10
556.8437239082784
 20
551.4862640035122
  0
LWPOLYLINE
  5
119
330
1F
100
AcDbEntity
  8
trace
100
AcDbPolyline
 90
        4
 70
     1
 43
0.0
 10
556.8824443401963
 20
551.4879758382766
 10
556.9163247191068
 20
551.4879758382766
 10
556.9163247191068
 20
551.4862640035122
 10
556.8824443401963
 20
551.4862640035122
  0
LWPOLYLINE
  5
11B
330
1F
100
AcDbEntity
  8
trace
100
AcDbPolyline
 90
        4
 70
     1
 43
0.0
 10
556.9206461962692
 20
551.4879758382766
 10
556.9550451510247
 20
551.4879758382766
 10
556.9550451510247
 20
551.4862640035122
 10
556.9206461962692
 20
551.4862640035122
  0
LWPOLYLINE
  5
11C
330
1F
100
AcDbEntity
  8
trace
100
AcDbPolyline
 90
        4
 70
     1
 43
0.0
 10
556.9593666281871
 20
551.4879758382766
 10
556.9934790949803
 20
551.4879758382766
 10
556.9934198657127
 20
551.4862640035122
 10
556.9593666281871
 20
551.4862640035122
  0
LWPOLYLINE
  5
124
330
1F
100
AcDbEntity
  8
trace
100
AcDbPolyline
 90
        3
 70
     0
 43
0.0
 10
556.7827607300768
 20
551.4862640035122
 10
556.7827607300768
 20
551.4718638514632
 10
556.7668016222523
 20
551.4718638514632
  0
LWPOLYLINE
  5
125
330
1F
100
AcDbEntity
  8
trace
100
AcDbPolyline
 90
        3
 70
     0
 43
0.0
 10
556.7847849163838
 20
551.4862640035122
 10
556.7847849163838
 20
551.4718638514632
 10
556.8008548597776
 20
551.4718638514632
  0
LWPOLYLINE
  5
126
330
1F
100
AcDbEntity
  8
trace
100
AcDbPolyline
 90
        3
 70
     0
 43
0.0
 10
556.8008548597776
 20
551.4690626675189
 10
556.7847070638954
 20
551.4690626675189
 10
556.7847070638954
 20
551.4560648787048
  0
LWPOLYLINE
  5
127
330
1F
100
AcDbEntity
  8
trace
100
AcDbPolyline
 90
        3
 70
     0
 43
0.0
 10
556.7668016222523
 20
551.4690626675189
 10
556.7826828756238
 20
551.4690626675189
 10
556.7826828756238
 20
551.4560648787048
  0
LWPOLYLINE
  5
128
330
1F
100
AcDbEntity
  8
trace
100
AcDbPolyline
 90
        3
 70
     0
 43
0.0
 10
556.821453852915
 20
551.4862640035122
 10
556.821453852915
 20
551.4718638514632
 10
556.8051763369402
 20
551.4718638514632
  0
LWPOLYLINE
  5
129
330
1F
100
AcDbEntity
  8
trace
100
AcDbPolyline
 90
        3
 70
     0
 43
0.0
 10
556.8234780392221
 20
551.4862640035122
 10
556.8234780392221
 20
551.4718638514632
 10
556.8394024311159
 20
551.4718638514632
  0
LWPOLYLINE
  5
12A
330
1F
100
AcDbEntity
  8
trace
100
AcDbPolyline
 90
        3
 70
     0
 43
0.0
 10
556.8394024311159
 20
551.4690626675189
 10
556.8234001867337
 20
551.4690626675189
 10
556.8234001867337
 20
551.4560648787048
  0
LWPOLYLINE
  5
12B
330
1F
100
AcDbEntity
  8
trace
100
AcDbPolyline
 90
        3
 70
     0
 43
0.0
 10
556.8051763369402
 20
551.4690626675189
 10
556.8213759984621
 20
551.4690626675189
 10
556.8213759984621
 20
551.4560648787048
  0
LWPOLYLINE
  5
12E
330
1F
100
AcDbEntity
  8
trace
100
AcDbPolyline
 90
        3
 70
     0
 43
0.0
 10
556.8599379748486
 20
551.4862640035122
 10
556.8599379748486
 20
551.4718638514632
 10
556.8437239082784
 20
551.4718638514632
  0
LWPOLYLINE
  5
12F
330
1F
100
AcDbEntity
  8
trace
100
AcDbPolyline
 90
        3
 70
     0
 43
0.0
 10
556.8619621611555
 20
551.4862640035122
 10
556.8619621611555
 20
551.4718638514632
 10
556.8780321045495
 20
551.4718638514632
  0
LWPOLYLINE
  5
130
330
1F
100
AcDbEntity
  8
trace
100
AcDbPolyline
 90
        3
 70
     0
 43
0.0
 10
556.8780321045495
 20
551.4690626675189
 10
556.8618843086674
 20
551.4690626675189
 10
556.8618843086674
 20
551.4560648787048
  0
LWPOLYLINE
  5
131
330
1F
100
AcDbEntity
  8
trace
100
AcDbPolyline
 90
        3
 70
     0
 43
0.0
 10
556.8437239082784
 20
551.4690626675189
 10
556.8598601203957
 20
551.4690626675189
 10
556.8598601203957
 20
551.4560648787048
  0
LWPOLYLINE
  5
132
330
1F
100
AcDbEntity
  8
trace
100
AcDbPolyline
 90
        3
 70
     0
 43
0.0
 10
556.8982312731152
 20
551.4862640035122
 10
556.8982312731152
 20
551.4718638514632
 10
556.8824443401963
 20
551.4718638514632
  0
LWPOLYLINE
  5
133
330
1F
100
AcDbEntity
  8
trace
100
AcDbPolyline
 90
        3
 70
     0
 43
0.0
 10
556.9002554594221
 20
551.4862640035122
 10
556.9002554594221
 20
551.4718638514632
 10
556.916325402816
 20
551.4718638514632
  0
LWPOLYLINE
  5
134
330
1F
100
AcDbEntity
  8
trace
100
AcDbPolyline
 90
        3
 70
     0
 43
0.0
 10
556.916325402816
 20
551.4690626675189
 10
556.9001776069338
 20
551.4690626675189
 10
556.9001776069338
 20
551.4560648787048
  0
LWPOLYLINE
  5
135
330
1F
100
AcDbEntity
  8
trace
100
AcDbPolyline
 90
        3
 70
     0
 43
0.0
 10
556.8824443401963
 20
551.4690626675189
 10
556.8981534186622
 20
551.4690626675189
 10
556.8981534186622
 20
551.4560648787048
  0
LWPOLYLINE
  5
136
330
1F
100
AcDbEntity
  8
trace
100
AcDbPolyline
 90
        3
 70
     0
 43
0.0
 10
556.9369319481909
 20
551.4862640035122
 10
556.9369319481909
 20
551.4718638514632
 10
556.9206461962692
 20
551.4718638514632
  0
LWPOLYLINE
  5
137
330
1F
100
AcDbEntity
  8
trace
100
AcDbPolyline
 90
        3
 70
     0
 43
0.0
 10
556.9389561344979
 20
551.4862640035122
 10
556.9389561344979
 20
551.4718638514632
 10
556.9550260778919
 20
551.4718638514632
  0
LWPOLYLINE
  5
138
330
1F
100
AcDbEntity
  8
trace
100
AcDbPolyline
 90
        3
 70
     0
 43
0.0
 10
556.9550260778919
 20
551.4690626675189
 10
556.9388782820096
 20
551.4690626675189
 10
556.9388782820096
 20
551.4560648787048
  0
LWPOLYLINE
  5
139
330
1F
100
AcDbEntity
  8
trace
100
AcDbPolyline
 90
        3
 70
     0
 43
0.0
 10
556.9206461962692
 20
551.4690626675189
 10
556.936854093738
 20
551.4690626675189
 10
556.936854093738
 20
551.4560648787048
  0
LWPOLYLINE
  5
13A
330
1F
100
AcDbEntity
  8
trace
100
AcDbPolyline
 90
        3
 70
     0
 43
0.0
 10
556.7827607300768
 20
551.4516617838794
 10
556.7827607300768
 20
551.4382121866108
 10
556.7668016222523
 20
551.4382121866108
  0
LWPOLYLINE
  5
13B
330
1F
100
AcDbEntity
  8
trace
100
AcDbPolyline
 90
        3
 70
     0
 43
0.0
 10
556.7847849163838
 20
551.4516617838794
 10
556.7847849163838
 20
551.4382121866108
 10
556.8008548597776
 20
551.4382121866108
  0
LWPOLYLINE
  5
13C
330
1F
100
AcDbEntity
  8
trace
100
AcDbPolyline
 90
        3
 70
     0
 43
0.0
 10
556.8008548597776
 20
551.4354110026666
 10
556.7847070638954
 20
551.4354110026666
 10
556.7847070638954
 20
551.420156248929
  0
LWPOLYLINE
  5
13D
330
1F
100
AcDbEntity
  8
trace
100
AcDbPolyline
 90
        3
 70
     0
 43
0.0
 10
556.7668016222523
 20
551.4354110026666
 10
556.7826828756238
 20
551.4354110026666
 10
556.7826828756238
 20
551.420156248929
  0
LWPOLYLINE
  5
13E
330
1F
100
AcDbEntity
  8
trace
100
AcDbPolyline
 90
        3
 70
     0
 43
0.0
 10
556.8218687799973
 20
551.4516617838794
 10
556.8218687799973
 20
551.4382121866108
 10
556.8059096721728
 20
551.4382121866108
  0
LWPOLYLINE
  5
13F
330
1F
100
AcDbEntity
  8
trace
100
AcDbPolyline
 90
        3
 70
     0
 43
0.0
 10
556.8238929663043
 20
551.4516617838794
 10
556.8238929663043
 20
551.4382121866108
 10
556.8394024311159
 20
551.4382121866108
  0
LWPOLYLINE
  5
140
330
1F
100
AcDbEntity
  8
trace
100
AcDbPolyline
 90
        3
 70
     0
 43
0.0
 10
556.8394024311159
 20
551.4354110026666
 10
556.8238151138159
 20
551.4354110026666
 10
556.8238151138159
 20
551.420156248929
  0
LWPOLYLINE
  5
141
330
1F
100
AcDbEntity
  8
trace
100
AcDbPolyline
 90
        3
 70
     0
 43
0.0
 10
556.8059096721728
 20
551.4354110026666
 10
556.8217909255443
 20
551.4354110026666
 10
556.8217909255443
 20
551.420156248929
  0
LWPOLYLINE
  5
142
330
1F
100
AcDbEntity
  8
trace
100
AcDbPolyline
 90
        3
 70
     0
 43
0.0
 10
556.8599583918238
 20
551.4516617838794
 10
556.8599583918238
 20
551.4382121866108
 10
556.8439992839993
 20
551.4382121866108
  0
LWPOLYLINE
  5
143
330
1F
100
AcDbEntity
  8
trace
100
AcDbPolyline
 90
        3
 70
     0
 43
0.0
 10
556.8619825781309
 20
551.4516617838794
 10
556.8619825781309
 20
551.4382121866108
 10
556.8780525215247
 20
551.4382121866108
  0
LWPOLYLINE
  5
144
330
1F
100
AcDbEntity
  8
trace
100
AcDbPolyline
 90
        3
 70
     0
 43
0.0
 10
556.8780525215247
 20
551.4354110026666
 10
556.8619047256425
 20
551.4354110026666
 10
556.8619047256425
 20
551.420156248929
  0
LWPOLYLINE
  5
145
330
1F
100
AcDbEntity
  8
trace
100
AcDbPolyline
 90
        3
 70
     0
 43
0.0
 10
556.8439992839993
 20
551.4354110026666
 10
556.8598805373708
 20
551.4354110026666
 10
556.8598805373708
 20
551.420156248929
  0
LWPOLYLINE
  5
146
330
1F
100
AcDbEntity
  8
trace
100
AcDbPolyline
 90
        3
 70
     0
 43
0.0
 10
556.8980480016858
 20
551.4516617838794
 10
556.8980480016858
 20
551.4382121866108
 10
556.8824443401963
 20
551.4382121866108
  0
LWPOLYLINE
  5
147
330
1F
100
AcDbEntity
  8
trace
100
AcDbPolyline
 90
        3
 70
     0
 43
0.0
 10
556.9000721879927
 20
551.4516617838794
 10
556.9000721879927
 20
551.4382121866108
 10
556.9161421313865
 20
551.4382121866108
  0
LWPOLYLINE
  5
148
330
1F
100
AcDbEntity
  8
trace
100
AcDbPolyline
 90
        3
 70
     0
 43
0.0
 10
556.9161421313865
 20
551.4354110026666
 10
556.8999943355042
 20
551.4354110026666
 10
556.8999943355042
 20
551.420156248929
  0
LWPOLYLINE
  5
149
330
1F
100
AcDbEntity
  8
trace
100
AcDbPolyline
 90
        3
 70
     0
 43
0.0
 10
556.8824443401963
 20
551.4354110026666
 10
556.8979701472326
 20
551.4354110026666
 10
556.8979701472326
 20
551.420156248929
  0
LWPOLYLINE
  5
14A
330
1F
100
AcDbEntity
  8
trace
100
AcDbPolyline
 90
        3
 70
     0
 43
0.0
 10
556.9367486767614
 20
551.4516617838794
 10
556.9367486767614
 20
551.4382121866108
 10
556.9207895689369
 20
551.4382121866108
  0
LWPOLYLINE
  5
14B
330
1F
100
AcDbEntity
  8
trace
100
AcDbPolyline
 90
        3
 70
     0
 43
0.0
 10
556.9387728630685
 20
551.4516617838794
 10
556.9387728630685
 20
551.4382121866108
 10
556.9548428064624
 20
551.4382121866108
  0
LWPOLYLINE
  5
14C
330
1F
100
AcDbEntity
  8
trace
100
AcDbPolyline
 90
        3
 70
     0
 43
0.0
 10
556.9548428064624
 20
551.4354110026666
 10
556.9386950105801
 20
551.4354110026666
 10
556.9386950105801
 20
551.420156248929
  0
LWPOLYLINE
  5
14D
330
1F
100
AcDbEntity
  8
trace
100
AcDbPolyline
 90
        3
 70
     0
 43
0.0
 10
556.9207895689369
 20
551.4354110026666
 10
556.9366708223085
 20
551.4354110026666
 10
556.9366708223085
 20
551.420156248929
  0
LWPOLYLINE
  5
153
330
1F
100
AcDbEntity
  8
trace
100
AcDbPolyline
 90
        4
 70
     1
 43
0.0
 10
556.9550451510247
 20
551.420156248929
 10
556.9206461962692
 20
551.420156248929
 10
556.9206461962692
 20
551.4183657952464
 10
556.9550451510247
 20
551.4183657952464
  0
LWPOLYLINE
  5
154
330
1F
100
AcDbEntity
  8
trace
100
AcDbPolyline
 90
        4
 70
     1
 43
0.0
 10
556.9163247191068
 20
551.420156248929
 10
556.8824443401963
 20
551.420156248929
 10
556.8824443401963
 20
551.4183657952464
 10
556.9163247191068
 20
551.4183657952464
  0
LWPOLYLINE
  5
159
330
1F
100
AcDbEntity
  8
trace
100
AcDbPolyline
 90
        4
 70
     1
 43
0.0
 10
556.8781228630338
 20
551.420156248929
 10
556.8437239082784
 20
551.420156248929
 10
556.8437239082784
 20
551.4183657952464
 10
556.8781228630338
 20
551.4183657952464
  0
LWPOLYLINE
  5
15A
330
1F
100
AcDbEntity
  8
trace
100
AcDbPolyline
 90
        4
 70
     1
 43
0.0
 10
556.8394024311159
 20
551.420156248929
 10
556.8051763369402
 20
551.420156248929
 10
556.8051763369402
 20
551.4183657952464
 10
556.8394024311159
 20
551.4183657952464
  0
LWPOLYLINE
  5
15B
330
1F
100
AcDbEntity
  8
trace
100
AcDbPolyline
 90
        4
 70
     1
 43
0.0
 10
556.8008548597776
 20
551.420156248929
 10
556.7668016222523
 20
551.420156248929
 10
556.7668016222523
 20
551.4183657952464
 10
556.8008548597776
 20
551.4183657952464
  0
LWPOLYLINE
  5
16D
330
1F
100
AcDbEntity
  8
trace
100
AcDbPolyline
 90
        4
 70
     1
 43
0.0
 10
556.7847849163838
 20
551.4879758382766
 10
556.7827682842789
 20
551.4879758382766
 10
556.7827682842789
 20
551.4959132620683
 10
556.7847849163838
 20
551.4959132620683
  0
LWPOLYLINE
  5
172
330
1F
100
AcDbEntity
  8
trace
100
AcDbPolyline
 90
        4
 70
     1
 43
0.0
 10
556.8234686676889
 20
551.4879758382766
 10
556.8214520355843
 20
551.4879758382766
 10
556.8214520355843
 20
551.4959132620683
 10
556.8234686676889
 20
551.4959132620683
  0
LWPOLYLINE
  5
178
330
1F
100
AcDbEntity
  8
trace
100
AcDbPolyline
 90
        4
 70
     1
 43
0.0
 10
556.861944113587
 20
551.4879758382766
 10
556.8599274814821
 20
551.4879758382766
 10
556.8599274814821
 20
551.4959132620683
 10
556.861944113587
 20
551.4959132620683
  0
LWPOLYLINE
  5
17A
330
1F
100
AcDbEntity
  8
trace
100
AcDbPolyline
 90
        4
 70
     1
 43
0.0
 10
556.9002913816675
 20
551.4879758382766
 10
556.8982747495628
 20
551.4879758382766
 10
556.8982747495628
 20
551.4959132620683
 10
556.9002913816675
 20
551.4959132620683
  0
LWPOLYLINE
  5
17C
330
1F
100
AcDbEntity
  8
trace
100
AcDbPolyline
 90
        4
 70
     1
 43
0.0
 10
556.9389434485464
 20
551.4879758382766
 10
556.9369268164416
 20
551.4879758382766
 10
556.9369268164416
 20
551.4959132620683
 10
556.9389434485464
 20
551.4959132620683
  0
LWPOLYLINE
  5
182
330
1F
100
AcDbEntity
  8
trace
100
AcDbPolyline
 90
        4
 70
     1
 43
0.0
 10
556.9386812754885
 20
551.4104306955697
 10
556.9366646433836
 20
551.4104306955697
 10
556.9366646433836
 20
551.4183681193615
 10
556.9386812754885
 20
551.4183681193615
  0
LWPOLYLINE
  5
186
330
1F
100
AcDbEntity
  8
trace
100
AcDbPolyline
 90
        4
 70
     1
 43
0.0
 10
556.8999750482213
 20
551.4104306955697
 10
556.8979584161166
 20
551.4104306955697
 10
556.8979584161166
 20
551.4183681193615
 10
556.8999750482213
 20
551.4183681193615
  0
LWPOLYLINE
  5
187
330
1F
100
AcDbEntity
  8
trace
100
AcDbPolyline
 90
        4
 70
     1
 43
0.0
 10
556.8619207436947
 20
551.4104306955697
 10
556.8599041115898
 20
551.4104306955697
 10
556.8599041115898
 20
551.4183681193615
 10
556.8619207436947
 20
551.4183681193615
  0
LWPOLYLINE
  5
189
330
1F
100
AcDbEntity
  8
trace
100
AcDbPolyline
 90
        4
 70
     1
 43
0.0
 10
556.8237751246788
 20
551.4104306955697
 10
556.8217584925742
 20
551.4104306955697
 10
556.8217584925742
 20
551.4183681193615
 10
556.8237751246788
 20
551.4183681193615
  0
LWPOLYLINE
  5
18A
330
1F
100
AcDbEntity
  8
trace
100
AcDbPolyline
 90
        4
 70
     1
 43
0.0
 10
556.7847263393904
 20
551.4104306955697
 10
556.7827097072856
 20
551.4104306955697
 10
556.7827097072856
 20
551.4183681193615
 10
556.7847263393904
 20
551.4183681193615
  0
LWPOLYLINE
  5
18F
330
1F
100
AcDbEntity
  8
trace
100
AcDbPolyline
 90
        2
 70
     0
 43
0.0
 10
556.7668016222523
 20
551.4155458772022
 10
556.7827097072856
 20
551.4155458772022
  0
LWPOLYLINE
  5
192
330
1F
100
AcDbEntity
  8
trace
100
AcDbPolyline
 90
        2
 70
     0
 43
0.0
 10
556.7668016222523
 20
551.4913342095427
 10
556.7827682842789
 20
551.4913342095427
  0
LWPOLYLINE
  5
193
330
1F
100
AcDbEntity
  8
trace
100
AcDbPolyline
 90
        2
 70
     0
 43
0.0
 10
556.9593666281871
 20
551.4913342095427
 10
556.9756445135222
 20
551.4913342095427
  0
LWPOLYLINE
  5
197
330
1F
100
AcDbEntity
  8
trace
100
AcDbPolyline
 90
        2
 70
     0
 43
0.0
 10
556.9389434485464
 20
551.4913342095427
 10
556.9550451510247
 20
551.4913342095427
  0
LWPOLYLINE
  5
198
330
1F
100
AcDbEntity
  8
trace
100
AcDbPolyline
 90
        2
 70
     0
 43
0.0
 10
556.9206461962692
 20
551.4913342095427
 10
556.9369268164416
 20
551.4913342095427
  0
LWPOLYLINE
  5
199
330
1F
100
AcDbEntity
  8
trace
100
AcDbPolyline
 90
        2
 70
     0
 43
0.0
 10
556.9002913816675
 20
551.4913342095427
 10
556.9163247191068
 20
551.4913342095427
  0
LWPOLYLINE
  5
19A
330
1F
100
AcDbEntity
  8
trace
100
AcDbPolyline
 90
        2
 70
     0
 43
0.0
 10
556.8824443401963
 20
551.4913342095427
 10
556.8982747495628
 20
551.4913342095427
  0
LWPOLYLINE
  5
19C
330
1F
100
AcDbEntity
  8
trace
100
AcDbPolyline
 90
        2
 70
     0
 43
0.0
 10
556.861944113587
 20
551.4913342095427
 10
556.8781228630338
 20
551.4913342095427
  0
LWPOLYLINE
  5
19D
330
1F
100
AcDbEntity
  8
trace
100
AcDbPolyline
 90
        2
 70
     0
 43
0.0
 10
556.8437239082784
 20
551.4913342095427
 10
556.8599274814821
 20
551.4913342095427
  0
LWPOLYLINE
  5
19E
330
1F
100
AcDbEntity
  8
trace
100
AcDbPolyline
 90
        2
 70
     0
 43
0.0
 10
556.8234686676889
 20
551.4913342095427
 10
556.8394024311159
 20
551.4913342095427
  0
LWPOLYLINE
  5
19F
330
1F
100
AcDbEntity
  8
trace
100
AcDbPolyline
 90
        2
 70
     0
 43
0.0
 10
556.8051763369402
 20
551.4913342095427
 10
556.8214520355843
 20
551.4913342095427
  0
LWPOLYLINE
  5
1A0
330
1F
100
AcDbEntity
  8
trace
100
AcDbPolyline
 90
        2
 70
     0
 43
0.0
 10
556.7847849163838
 20
551.4913342095427
 10
556.8008548597776
 20
551.4913342095427
  0
LWPOLYLINE
  5
1A2
330
1F
100
AcDbEntity
  8
trace
100
AcDbPolyline
 90
        2
 70
     0
 43
0.0
 10
556.7847263393904
 20
551.4155458772022
 10
556.8008548597776
 20
551.4155458772022
  0
LWPOLYLINE
  5
1A3
330
1F
100
AcDbEntity
  8
trace
100
AcDbPolyline
 90
        2
 70
     0
 43
0.0
 10
556.8051763369402
 20
551.4155458772022
 10
556.8217584925742
 20
551.4155458772022
  0
LWPOLYLINE
  5
1A4
330
1F
100
AcDbEntity
  8
trace
100
AcDbPolyline
 90
        2
 70
     0
 43
0.0
 10
556.8237751246788
 20
551.4155458772022
 10
556.8394024311159
 20
551.4155458772022
  0
LWPOLYLINE
  5
1A6
330
1F
100
AcDbEntity
  8
trace
100
AcDbPolyline
 90
        2
 70
     0
 43
0.0
 10
556.8437239082784
 20
551.4155458772022
 10
556.8599041115898
 20
551.4155458772022
  0
LWPOLYLINE
  5
1A7
330
1F
100
AcDbEntity
  8
trace
100
AcDbPolyline
 90
        2
 70
     0
 43
0.0
 10
556.8619207436947
 20
551.4155458772022
 10
556.8781228630338
 20
551.4155458772022
  0
LWPOLYLINE
  5
1A8
330
1F
100
AcDbEntity
  8
trace
100
AcDbPolyline
 90
        2
 70
     0
 43
0.0
 10
556.8824443401963
 20
551.4155458772022
 10
556.8979584161166
 20
551.4155458772022
  0
LWPOLYLINE
  5
1AA
330
1F
100
AcDbEntity
  8
trace
100
AcDbPolyline
 90
        2
 70
     0
 43
0.0
 10
556.8999750482213
 20
551.4155458772022
 10
556.9163247191068
 20
551.4155458772022
  0
LWPOLYLINE
  5
1AB
330
1F
100
AcDbEntity
  8
trace
100
AcDbPolyline
 90
        2
 70
     0
 43
0.0
 10
556.9206461962692
 20
551.4155458772022
 10
556.9366646433836
 20
551.4155458772022
  0
LWPOLYLINE
  5
1AC
330
1F
100
AcDbEntity
  8
trace
100
AcDbPolyline
 90
        2
 70
     0
 43
0.0
 10
556.9386812754885
 20
551.4155458772022
 10
556.9550451510247
 20
551.4155458772022
  0
LWPOLYLINE
  5
1BA
330
1F
100
AcDbEntity
  8
trace
100
AcDbPolyline
 90
        4
 70
     1
 43
0.0
 10
556.9934790949803
 20
551.4952816401843
 10
556.9978005721428
 20
551.4952816401843
 10
556.9978005721428
 20
551.4102816401844
 10
556.9934790949803
 20
551.4102816401844
  0
LWPOLYLINE
  5
1BB
330
1F
100
AcDbEntity
  8
trace
100
AcDbPolyline
 90
        4
 70
     1
 43
0.0
 10
556.9593586456842
 20
551.4560648787048
 10
556.9934790949803
 20
551.4560648787048
 10
556.9934790949803
 20
551.4516617838794
 10
556.9593586456842
 20
551.4516617838794
  0
LWPOLYLINE
  5
1BC
330
1F
100
AcDbEntity
  8
trace
100
AcDbPolyline
 90
        3
 70
     0
 43
0.0
 10
556.975644397606
 20
551.4862640035122
 10
556.975644397606
 20
551.4718638514632
 10
556.9593586456842
 20
551.4718638514632
  0
LWPOLYLINE
  5
1BD
330
1F
100
AcDbEntity
  8
trace
100
AcDbPolyline
 90
        3
 70
     0
 43
0.0
 10
556.9776685839129
 20
551.4862640035122
 10
556.9776685839129
 20
551.4718638514632
 10
556.9934790949803
 20
551.4718638514632
  0
LWPOLYLINE
  5
1BE
330
1F
100
AcDbEntity
  8
trace
100
AcDbPolyline
 90
        3
 70
     0
 43
0.0
 10
556.9934790949803
 20
551.4690626675189
 10
556.9775907314246
 20
551.4690626675189
 10
556.9775907314246
 20
551.4560648787048
  0
LWPOLYLINE
  5
1BF
330
1F
100
AcDbEntity
  8
trace
100
AcDbPolyline
 90
        3
 70
     0
 43
0.0
 10
556.9593586456842
 20
551.4690626675189
 10
556.975566543153
 20
551.4690626675189
 10
556.975566543153
 20
551.4560648787048
  0
LWPOLYLINE
  5
1C0
330
1F
100
AcDbEntity
  8
trace
100
AcDbPolyline
 90
        3
 70
     0
 43
0.0
 10
556.9754611261764
 20
551.4516617838794
 10
556.9754611261764
 20
551.4382121866108
 10
556.9595020183519
 20
551.4382121866108
  0
LWPOLYLINE
  5
1C1
330
1F
100
AcDbEntity
  8
trace
100
AcDbPolyline
 90
        3
 70
     0
 43
0.0
 10
556.9774853124835
 20
551.4516617838794
 10
556.9774853124835
 20
551.4382121866108
 10
556.9934790949803
 20
551.4382121866108
  0
LWPOLYLINE
  5
1C2
330
1F
100
AcDbEntity
  8
trace
100
AcDbPolyline
 90
        3
 70
     0
 43
0.0
 10
556.9935552558774
 20
551.4354110026666
 10
556.9774074599952
 20
551.4354110026666
 10
556.9774074599952
 20
551.420156248929
  0
LWPOLYLINE
  5
1C3
330
1F
100
AcDbEntity
  8
trace
100
AcDbPolyline
 90
        3
 70
     0
 43
0.0
 10
556.9595020183519
 20
551.4354110026666
 10
556.9753832717236
 20
551.4354110026666
 10
556.9753832717236
 20
551.420156248929
  0
LWPOLYLINE
  5
1C4
330
1F
100
AcDbEntity
  8
trace
100
AcDbPolyline
 90
        4
 70
     1
 43
0.0
 10
556.9934790949803
 20
551.420156248929
 10
556.9593586456842
 20
551.420156248929
 10
556.9593586456842
 20
551.4183657952464
 10
556.9934790949803
 20
551.4183657952464
  0
LWPOLYLINE
  5
1C5
330
1F
100
AcDbEntity
  8
trace
100
AcDbPolyline
 90
        4
 70
     1
 43
0.0
 10
556.9773937249035
 20
551.4104306955697
 10
556.9753770927986
 20
551.4104306955697
 10
556.9753770927986
 20
551.4183681193615
 10
556.9773937249035
 20
551.4183681193615
  0
LWPOLYLINE
  5
1C6
330
1F
100
AcDbEntity
  8
trace
100
AcDbPolyline
 90
        2
 70
     0
 43
0.0
 10
556.9593586456842
 20
551.4155458772022
 10
556.9753770927986
 20
551.4155458772022
  0
LWPOLYLINE
  5
1C7
330
1F
100
AcDbEntity
  8
trace
100
AcDbPolyline
 90
        2
 70
     0
 43
0.0
 10
556.9773937249035
 20
551.4155458772022
 10
556.9934790949803
 20
551.4155458772022
  0
LWPOLYLINE
  5
1CD
330
1F
100
AcDbEntity
  8
trace
100
AcDbPolyline
 90
        4
 70
     1
 43
0.0
 10
556.977661145627
 20
551.4879758382766
 10
556.9756445135222
 20
551.4879758382766
 10
556.9756445135222
 20
551.4959132620683
 10
556.977661145627
 20
551.4959132620683
  0
LWPOLYLINE
  5
1CE
330
1F
100
AcDbEntity
  8
trace
100
AcDbPolyline
 90
        2
 70
     0
 43
0.0
 10
556.977661145627
 20
551.4913342095427
 10
556.9934790949803
 20
551.4913342095427
  0
IMAGE
  5
224
330
1F
100
AcDbEntity
  8
text
  6
Continuous
 92
      140
310
8C0000000100000084000000060000000500000041B838F4A26781401D380584A93A8140000000000000000041B838F4A26781406EF1F983D63A814000000000000000007DCA4CCCC76781406EF1F983D63A814000000000000000007DCA4CCCC76781401D380584A93A8140000000000000000041B838F4A26781401D3805
310
84A93A81400000000000000000
100
AcDbRasterImage
 90
        0
 10
556.9545673781614
 20
551.3327713401555
 30
0.0
 11
0.0000043665684095
 21
0.0
 31
0.0
 12
0.0
 22
0.0000043665684095
 32
0.0
 13
4120.0
 23
5032.0
340
1F2
 70
     7
280
     0
281
    50
282
    50
283
     0
360
225
 71
     1
 91
        2
 14
-0.5
 24
-0.5
 14
4119.5
 24
5031.5
  0
IMAGE
  5
226
330
1F
100
AcDbEntity
  8
text
  6
Continuous
 92
      140
310
8C000000010000008400000006000000050000005FACB9E0CE678140A296DEA4BF3A814000000000000000005FACB9E0CE678140B2284606D73A81400000000000000000181B99CD17688140B2284606D73A81400000000000000000181B99CD17688140A296DEA4BF3A814000000000000000005FACB9E0CE678140A296DE
310
A4BF3A81400000000000000000
100
AcDbRasterImage
 90
        0
 10
556.9760145669678
 20
551.3435761823386
 30
0.0
 11
0.0000044421218787
 21
0.0
 31
0.0
 12
0.0
 22
0.0000044421218787
 32
0.0
 13
8016.0
 23
2570.0
340
1F1
 70
     7
280
     0
281
    50
282
    50
283
     0
360
227
 71
     1
 91
        2
 14
-0.5
 24
-0.5
 14
8015.500000000001
 24
2569.5
  0
MTEXT
  5
228
330
1F
100
AcDbEntity
  8
text
  6
Continuous
100
AcDbMText
 10
556.7423097091364
 20
551.3453224870189
 30
0.0
 40
0.0035000000000006
 41
0.0659204012204212
 71
     1
 72
     5
  1
{\fArial|b0|i0|c0|p34;\H1.286x;St Marys Church\P\H0.7778x;Haverfordwest\PCarmarthenshire}
 73
     1
 44
1.0
1001
ACAD
1000
ACAD_MTEXT_DEFINED_HEIGHT_BEGIN
1070
    46
1040
0.0
1000
ACAD_MTEXT_DEFINED_HEIGHT_END
  0
MTEXT
  5
229
330
1F
100
AcDbEntity
  8
text
  6
Continuous
100
AcDbMText
 10
556.8127183915768
 20
551.3451149011908
 30
0.0
 40
0.003
 41
0.0854788502322353
 71
     1
 72
     5
  1
{\fArial|b0|i0|c0|p34;NPRN 103300\PGrid ref. SM95191557\PSurveyed: June 2005 SF\PPrint scale: 1:200 at A4}
 73
     1
 44
1.0
1001
ACAD
1000
ACAD_MTEXT_DEFINED_HEIGHT_BEGIN
1070
    46
1040
0.0
1000
ACAD_MTEXT_DEFINED_HEIGHT_END
  0
MTEXT
  5
27B
330
1F
100
AcDbEntity
  8
trace
100
AcDbMText
 10
556.7440206747233
 20
551.4069166984438
 30
0.0
 40
0.0035000000000006
 41
0.0476248581817345
 71
     1
 72
     5
  1
\pt1.518e-005;{\fTimes New Roman|b0|i0|c238|p18;TRUSS}
 73
     1
 44
1.0
1001
ACAD
1000
ACAD_MTEXT_DEFINED_HEIGHT_BEGIN
1070
    46
1040
0.0
1000
ACAD_MTEXT_DEFINED_HEIGHT_END
  0
MTEXT
  5
27C
330
1F
100
AcDbEntity
  8
trace
100
AcDbMText
 10
556.7639516348024
 20
551.4069166984438
 30
0.0
 40
0.0035000000000006
 41
0.0476248581817345
 71
     1
 72
     5
  1
\pt1.518e-005;{\fTimes New Roman|b0|i0|c238|p18;I}
 73
     1
 44
1.0
1001
ACAD
1000
ACAD_MTEXT_DEFINED_HEIGHT_BEGIN
1070
    46
1040
0.0
1000
ACAD_MTEXT_DEFINED_HEIGHT_END
  0
MTEXT
  5
27E
330
1F
100
AcDbEntity
  8
trace
100
AcDbMText
 10
556.7822465772549
 20
551.4069166984438
 30
0.0
 40
0.0035000000000006
 41
0.0476248581817345
 71
     1
 72
     5
  1
\pt1.518e-005;{\fTimes New Roman|b0|i0|c238|p18;II}
 73
     1
 44
1.0
1001
ACAD
1000
ACAD_MTEXT_DEFINED_HEIGHT_BEGIN
1070
    46
1040
0.0
1000
ACAD_MTEXT_DEFINED_HEIGHT_END
  0
MTEXT
  5
27F
330
1F
100
AcDbEntity
  8
trace
100
AcDbMText
 10
556.8005392713423
 20
551.4069166984438
 30
0.0
 40
0.0035000000000006
 41
0.0476248581817345
 71
     1
 72
     5
  1
\pt1.518e-005;{\fTimes New Roman|b0|i0|c238|p18;III}
 73
     1
 44
1.0
1001
ACAD
1000
ACAD_MTEXT_DEFINED_HEIGHT_BEGIN
1070
    46
1040
0.0
1000
ACAD_MTEXT_DEFINED_HEIGHT_END
  0
MTEXT
  5
280
330
1F
100
AcDbEntity
  8
trace
100
AcDbMText
 10
556.8207812975063
 20
551.4069166984438
 30
0.0
 40
0.0035000000000006
 41
0.0476248581817345
 71
     1
 72
     5
  1
\pt1.518e-005;{\fTimes New Roman|b0|i0|c238|p18;IV}
 73
     1
 44
1.0
1001
ACAD
1000
ACAD_MTEXT_DEFINED_HEIGHT_BEGIN
1070
    46
1040
0.0
1000
ACAD_MTEXT_DEFINED_HEIGHT_END
  0
MTEXT
  5
281
330
1F
100
AcDbEntity
  8
trace
100
AcDbMText
 10
556.8399755857837
 20
551.4069166984438
 30
0.0
 40
0.0035000000000006
 41
0.0476248581817345
 71
     1
 72
     5
  1
{\fTimes New Roman|b0|i0|c238|p18;V}
 73
     1
 44
1.0
1001
ACAD
1000
ACAD_MTEXT_DEFINED_HEIGHT_BEGIN
1070
    46
1040
0.0
1000
ACAD_MTEXT_DEFINED_HEIGHT_END
  0
MTEXT
  5
282
330
1F
100
AcDbEntity
  8
trace
100
AcDbMText
 10
556.8578208553238
 20
551.4069166984438
 30
0.0
 40
0.0035000000000006
 41
0.0476248581817345
 71
     1
 72
     5
  1
\pt1.518e-005;{\fTimes New Roman|b0|i0|c238|p18;VI}
 73
     1
 44
1.0
1001
ACAD
1000
ACAD_MTEXT_DEFINED_HEIGHT_BEGIN
1070
    46
1040
0.0
1000
ACAD_MTEXT_DEFINED_HEIGHT_END
  0
MTEXT
  5
283
330
1F
100
AcDbEntity
  8
trace
100
AcDbMText
 10
556.8764125818981
 20
551.4069166984438
 30
0.0
 40
0.0035000000000006
 41
0.0476248581817345
 71
     1
 72
     5
  1
\pt1.518e-005;{\fTimes New Roman|b0|i0|c238|p18;VII}
 73
     1
 44
1.0
1001
ACAD
1000
ACAD_MTEXT_DEFINED_HEIGHT_BEGIN
1070
    46
1040
0.0
1000
ACAD_MTEXT_DEFINED_HEIGHT_END
  0
MTEXT
  5
285
330
1F
100
AcDbEntity
  8
trace
100
AcDbMText
 10
556.8948559164121
 20
551.4069166984438
 30
0.0
 40
0.0035000000000006
 41
0.0476248581817345
 71
     1
 72
     5
  1
\pt1.518e-005;{\fTimes New Roman|b0|i0|c238|p18;VIII}
 73
     1
 44
1.0
1001
ACAD
1000
ACAD_MTEXT_DEFINED_HEIGHT_BEGIN
1070
    46
1040
0.0
1000
ACAD_MTEXT_DEFINED_HEIGHT_END
  0
MTEXT
  5
286
330
1F
100
AcDbEntity
  8
trace
100
AcDbMText
 10
556.9158488963405
 20
551.4069166984438
 30
0.0
 40
0.0035000000000006
 41
0.0476248581817345
 71
     1
 72
     5
  1
\pt1.518e-005;{\fTimes New Roman|b0|i0|c238|p18;IX}
 73
     1
 44
1.0
1001
ACAD
1000
ACAD_MTEXT_DEFINED_HEIGHT_BEGIN
1070
    46
1040
0.0
1000
ACAD_MTEXT_DEFINED_HEIGHT_END
  0
MTEXT
  5
287
330
1F
100
AcDbEntity
  8
trace
100
AcDbMText
 10
556.935794138382
 20
551.4069166984438
 30
0.0
 40
0.0035000000000006
 41
0.0476248581817345
 71
     1
 72
     5
  1
\pt1.518e-005;{\fTimes New Roman|b0|i0|c238|p18;X}
 73
     1
 44
1.0
1001
ACAD
1000
ACAD_MTEXT_DEFINED_HEIGHT_BEGIN
1070
    46
1040
0.0
1000
ACAD_MTEXT_DEFINED_HEIGHT_END
  0
MTEXT
  5
288
330
1F
100
AcDbEntity
  8
trace
100
AcDbMText
 10
556.9543858649565
 20
551.4069166984438
 30
0.0
 40
0.0035000000000006
 41
0.0476248581817345
 71
     1
 72
     5
  1
\pt1.518e-005;{\fTimes New Roman|b0|i0|c238|p18;XI}
 73
     1
 44
1.0
1001
ACAD
1000
ACAD_MTEXT_DEFINED_HEIGHT_BEGIN
1070
    46
1040
0.0
1000
ACAD_MTEXT_DEFINED_HEIGHT_END
  0
MTEXT
  5
289
330
1F
100
AcDbEntity
  8
trace
100
AcDbMText
 10
556.9725279186184
 20
551.4069166984438
 30
0.0
 40
0.0035000000000006
 41
0.0476248581817345
 71
     1
 72
     5
  1
\pt1.518e-005;{\fTimes New Roman|b0|i0|c238|p18;XII}
 73
     1
 44
1.0
1001
ACAD
1000
ACAD_MTEXT_DEFINED_HEIGHT_BEGIN
1070
    46
1040
0.0
1000
ACAD_MTEXT_DEFINED_HEIGHT_END
  0
MTEXT
  5
28A
330
1F
100
AcDbEntity
  8
trace
100
AcDbMText
 10
556.9920212393833
 20
551.4069166984438
 30
0.0
 40
0.0035000000000006
 41
0.0476248581817345
 71
     1
 72
     5
  1
\pt1.518e-005;{\fTimes New Roman|b0|i0|c238|p18;XII}
 73
     1
 44
1.0
1001
ACAD
1000
ACAD_MTEXT_DEFINED_HEIGHT_BEGIN
1070
    46
1040
0.0
1000
ACAD_MTEXT_DEFINED_HEIGHT_END
  0
LWPOLYLINE
  5
297
330
1F
100
AcDbEntity
  8
trace
100
AcDbPolyline
 90
        2
 70
     0
 43
0.0
 10
556.7820104989761
 20
551.3800276830669
 10
556.8320104989761
 20
551.3800276830669
  0
LWPOLYLINE
  5
2A8
330
1F
100
AcDbEntity
  8
trace
100
AcDbPolyline
 90
        4
 70
     1
 43
0.0
 10
556.7870104989761
 20
551.3770027702911
 10
556.7820104989761
 20
551.3770027702911
 10
556.7820104989761
 20
551.3800276830669
 10
556.7870104989761
 20
551.3800276830669
  0
LWPOLYLINE
  5
2AA
330
1F
100
AcDbEntity
  8
trace
100
AcDbPolyline
 90
        4
 70
     1
 43
0.0
 10
556.7970104989761
 20
551.3770027702911
 10
556.7920104989761
 20
551.3770027702911
 10
556.7920104989761
 20
551.3800276830669
 10
556.7970104989761
 20
551.3800276830669
  0
LWPOLYLINE
  5
2AC
330
1F
100
AcDbEntity
  8
trace
100
AcDbPolyline
 90
        4
 70
     1
 43
0.0
 10
556.8070104989762
 20
551.3770027702911
 10
556.8020104989762
 20
551.3770027702911
 10
556.8020104989762
 20
551.3800276830669
 10
556.8070104989762
 20
551.3800276830669
  0
MTEXT
  5
2AF
330
1F
100
AcDbEntity
  8
trace
100
AcDbMText
 10
556.7813832052622
 20
551.3855181441373
 30
0.0
 40
0.0035000000000006
 41
0.0476248581817345
 71
     1
 72
     5
  1
\pt1.518e-005;{\fTimes New Roman|b0|i0|c238|p18;0}
 73
     1
 44
1.0
1001
ACAD
1000
ACAD_MTEXT_DEFINED_HEIGHT_BEGIN
1070
    46
1040
0.0
1000
ACAD_MTEXT_DEFINED_HEIGHT_END
  0
MTEXT
  5
2B0
330
1F
100
AcDbEntity
  8
trace
100
AcDbMText
 10
556.8062231369587
 20
551.3855181441373
 30
0.0
 40
0.0035000000000006
 41
0.0476248581817345
 71
     1
 72
     5
  1
\pt1.518e-005;{\fTimes New Roman|b0|i0|c238|p18;5}
 73
     1
 44
1.0
1001
ACAD
1000
ACAD_MTEXT_DEFINED_HEIGHT_BEGIN
1070
    46
1040
0.0
1000
ACAD_MTEXT_DEFINED_HEIGHT_END
  0
MTEXT
  5
2B1
330
1F
100
AcDbEntity
  8
trace
100
AcDbMText
 10
556.8312789116532
 20
551.3855181441373
 30
0.0
 40
0.0035000000000006
 41
0.0476248581817345
 71
     1
 72
     5
  1
\pt1.518e-005;{\fTimes New Roman|b0|i0|c238|p18;10m}
 73
     1
 44
1.0
1001
ACAD
1000
ACAD_MTEXT_DEFINED_HEIGHT_BEGIN
1070
    46
1040
0.0
1000
ACAD_MTEXT_DEFINED_HEIGHT_END
  0
LWPOLYLINE
  5
2CB
330
1F
100
AcDbEntity
  8
trace
100
AcDbPolyline
 90
        4
 70
     1
 43
0.0
 10
556.728179393876
 20
551.3157491548784
 10
556.728179393876
 20
551.5257491548775
 10
557.0251793938756
 20
551.5257491548775
 10
557.0251793938756
 20
551.3157491548784
  0
LWPOLYLINE
  5
2CC
330
1F
100
AcDbEntity
  8
trace
100
AcDbPolyline
 90
        4
 70
     1
 43
0.0
 10
556.7409403720526
 20
551.5127808002164
 10
557.0123296528033
 20
551.5127808002164
 10
557.0123296528033
 20
551.3603994700249
 10
556.7409403720526
 20
551.3603994700249
  0
LWPOLYLINE
  5
2D8
102
{ACAD_REACTORS
330
2DF
102
}
330
1F
100
AcDbEntity
  8
trace
100
AcDbPolyline
 90
        4
 70
     1
 43
0.0
 10
556.7820104989761
 20
551.3800276830669
 10
556.7870104989761
 20
551.3800276830669
 10
556.7870104989761
 20
551.378515226679
 10
556.7820104989761
 20
551.378515226679
  0
LWPOLYLINE
  5
2D9
102
{ACAD_REACTORS
330
2E4
102
}
330
1F
100
AcDbEntity
  8
trace
100
AcDbPolyline
 90
        4
 70
     1
 43
0.0
 10
556.7870104989761
 20
551.378515226679
 10
556.7920104989761
 20
551.378515226679
 10
556.7920104989761
 20
551.3770027702911
 10
556.7870104989761
 20
551.3770027702911
  0
LWPOLYLINE
  5
2DA
102
{ACAD_REACTORS
330
2E3
102
}
330
1F
100
AcDbEntity
  8
trace
100
AcDbPolyline
 90
        4
 70
     1
 43
0.0
 10
556.7920104989761
 20
551.3800276830669
 10
556.7970104989761
 20
551.3800276830669
 10
556.7970104989761
 20
551.378515226679
 10
556.7920104989761
 20
551.378515226679
  0
LWPOLYLINE
  5
2DB
102
{ACAD_REACTORS
330
2E2
102
}
330
1F
100
AcDbEntity
  8
trace
100
AcDbPolyline
 90
        4
 70
     1
 43
0.0
 10
556.7970104989761
 20
551.378515226679
 10
556.8020104989762
 20
551.378515226679
 10
556.8020104989762
 20
551.3770027702911
 10
556.7970104989761
 20
551.3770027702911
  0
LWPOLYLINE
  5
2DC
102
{ACAD_REACTORS
330
2E1
102
}
330
1F
100
AcDbEntity
  8
trace
100
AcDbPolyline
 90
        4
 70
     1
 43
0.0
 10
556.8020104989762
 20
551.3800276830669
 10
556.8070104989762
 20
551.3800276830669
 10
556.8070104989762
 20
551.378515226679
 10
556.8020104989762
 20
551.378515226679
  0
LWPOLYLINE
  5
2DD
330
1F
100
AcDbEntity
  8
trace
100
AcDbPolyline
 90
        4
 70
     1
 43
0.0
 10
556.8070104989762
 20
551.378515226679
 10
556.8320104989761
 20
551.378515226679
 10
556.8320104989761
 20
551.3800276830669
 10
556.8070104989762
 20
551.3800276830669
  0
LWPOLYLINE
  5
2DE
102
{ACAD_REACTORS
330
2E0
102
}
330
1F
100
AcDbEntity
  8
trace
100
AcDbPolyline
 90
        4
 70
     1
 43
0.0
 10
556.8320104989761
 20
551.378515226679
 10
556.8070104989762
 20
551.378515226679
 10
556.8070104989762
 20
551.3770027702911
 10
556.8320104989761
 20
551.3770027702911
  0
HATCH
  5
2DF
330
1F
100
AcDbEntity
  8
trace
100
AcDbHatch
 10
0.0
 20
0.0
 30
0.0
210
0.0
220
0.0
230
1.0
  2
SOLID
 70
     1
 71
     1
 91
        1
 92
        1
 93
        4
 72
     1
 10
556.7820104989761
 20
551.3800276830669
 11
556.7870104989761
 21
551.3800276830669
 72
     1
 10
556.7870104989761
 20
551.3800276830669
 11
556.7870104989761
 21
551.378515226679
 72
     1
 10
556.7870104989761
 20
551.378515226679
 11
556.7820104989761
 21
551.378515226679
 72
     1
 10
556.7820104989761
 20
551.378515226679
 11
556.7820104989761
 21
551.3800276830669
 97
        1
330
2D8
 75
     0
 76
     1
 98
        1
 10
0.0
 20
0.0108137477595847
450
        0
451
        0
460
0.0
461
0.0
452
        1
462
1.0
453
        2
463
0.0
 63
     5
421
      255
463
1.0
 63
     7
421
 16777215
470
LINEAR
1001
ACAD
1010
0.0
1020
0.0
1030
0.0
  0
HATCH
  5
2E0
330
1F
100
AcDbEntity
  8
trace
100
AcDbHatch
 10
0.0
 20
0.0
 30
0.0
210
0.0
220
0.0
230
1.0
  2
SOLID
 70
     1
 71
     1
 91
        1
 92
        1
 93
        4
 72
     1
 10
556.8320104989761
 20
551.378515226679
 11
556.8070104989762
 21
551.378515226679
 72
     1
 10
556.8070104989762
 20
551.378515226679
 11
556.8070104989762
 21
551.3770027702911
 72
     1
 10
556.8070104989762
 20
551.3770027702911
 11
556.8320104989761
 21
551.3770027702911
 72
     1
 10
556.8320104989761
 20
551.3770027702911
 11
556.8320104989761
 21
551.378515226679
 97
        1
330
2DE
 75
     0
 76
     1
 98
        1
 10
0.0
 20
0.0108137477595847
450
        0
451
        0
460
0.0
461
0.0
452
        1
462
1.0
453
        2
463
0.0
 63
     5
421
      255
463
1.0
 63
     7
421
 16777215
470
LINEAR
1001
ACAD
1010
0.0
1020
0.0
1030
0.0
  0
HATCH
  5
2E1
330
1F
100
AcDbEntity
  8
trace
100
AcDbHatch
 10
0.0
 20
0.0
 30
0.0
210
0.0
220
0.0
230
1.0
  2
SOLID
 70
     1
 71
     1
 91
        1
 92
        1
 93
        4
 72
     1
 10
556.8020104989762
 20
551.3800276830669
 11
556.8070104989762
 21
551.3800276830669
 72
     1
 10
556.8070104989762
 20
551.3800276830669
 11
556.8070104989762
 21
551.378515226679
 72
     1
 10
556.8070104989762
 20
551.378515226679
 11
556.8020104989762
 21
551.378515226679
 72
     1
 10
556.8020104989762
 20
551.378515226679
 11
556.8020104989762
 21
551.3800276830669
 97
        1
330
2DC
 75
     0
 76
     1
 98
        1
 10
0.0
 20
0.0108137477595847
450
        0
451
        0
460
0.0
461
0.0
452
        1
462
1.0
453
        2
463
0.0
 63
     5
421
      255
463
1.0
 63
     7
421
 16777215
470
LINEAR
1001
ACAD
1010
0.0
1020
0.0
1030
0.0
  0
HATCH
  5
2E2
330
1F
100
AcDbEntity
  8
trace
100
AcDbHatch
 10
0.0
 20
0.0
 30
0.0
210
0.0
220
0.0
230
1.0
  2
SOLID
 70
     1
 71
     1
 91
        1
 92
        1
 93
        4
 72
     1
 10
556.7970104989761
 20
551.378515226679
 11
556.8020104989762
 21
551.378515226679
 72
     1
 10
556.8020104989762
 20
551.378515226679
 11
556.8020104989762
 21
551.3770027702911
 72
     1
 10
556.8020104989762
 20
551.3770027702911
 11
556.7970104989761
 21
551.3770027702911
 72
     1
 10
556.7970104989761
 20
551.3770027702911
 11
556.7970104989761
 21
551.378515226679
 97
        1
330
2DB
 75
     0
 76
     1
 98
        1
 10
0.0
 20
0.0108137477595847
450
        0
451
        0
460
0.0
461
0.0
452
        1
462
1.0
453
        2
463
0.0
 63
     5
421
      255
463
1.0
 63
     7
421
 16777215
470
LINEAR
1001
ACAD
1010
0.0
1020
0.0
1030
0.0
  0
HATCH
  5
2E3
330
1F
100
AcDbEntity
  8
trace
100
AcDbHatch
 10
0.0
 20
0.0
 30
0.0
210
0.0
220
0.0
230
1.0
  2
SOLID
 70
     1
 71
     1
 91
        1
 92
        1
 93
        4
 72
     1
 10
556.7920104989761
 20
551.3800276830669
 11
556.7970104989761
 21
551.3800276830669
 72
     1
 10
556.7970104989761
 20
551.3800276830669
 11
556.7970104989761
 21
551.378515226679
 72
     1
 10
556.7970104989761
 20
551.378515226679
 11
556.7920104989761
 21
551.378515226679
 72
     1
 10
556.7920104989761
 20
551.378515226679
 11
556.7920104989761
 21
551.3800276830669
 97
        1
330
2DA
 75
     0
 76
     1
 98
        1
 10
0.0
 20
0.0108137477595847
450
        0
451
        0
460
0.0
461
0.0
452
        1
462
1.0
453
        2
463
0.0
 63
     5
421
      255
463
1.0
 63
     7
421
 16777215
470
LINEAR
1001
ACAD
1010
0.0
1020
0.0
1030
0.0
  0
HATCH
  5
2E4
330
1F
100
AcDbEntity
  8
trace
100
AcDbHatch
 10
0.0
 20
0.0
 30
0.0
210
0.0
220
0.0
230
1.0
  2
SOLID
 70
     1
 71
     1
 91
        1
 92
        1
 93
        4
 72
     1
 10
556.7870104989761
 20
551.378515226679
 11
556.7920104989761
 21
551.378515226679
 72
     1
 10
556.7920104989761
 20
551.378515226679
 11
556.7920104989761
 21
551.3770027702911
 72
     1
 10
556.7920104989761
 20
551.3770027702911
 11
556.7870104989761
 21
551.3770027702911
 72
     1
 10
556.7870104989761
 20
551.3770027702911
 11
556.7870104989761
 21
551.378515226679
 97
        1
330
2D9
 75
     0
 76
     1
 98
        1
 10
0.0
 20
0.0108137477595847
450
        0
451
        0
460
0.0
461
0.0
452
        1
462
1.0
453
        2
463
0.0
 63
     5
421
      255
463
1.0
 63
     7
421
 16777215
470
LINEAR
1001
ACAD
1010
0.0
1020
0.0
1030
0.0
  0
MTEXT
  5
302
330
1F
100
AcDbEntity
  8
trace
100
AcDbMText
 10
556.9295290624518
 20
551.3279578407533
 30
0.0
 40
0.0015
 41
0.1078441899562676
 71
     1
 72
     5
  1
{\fArial|b0|i0|c0|p34;Crown Copyright: Royal Commission on the Ancient & Historical Monuments of Wales, 2006\PHawlfraint y Goron: Comisiwn Brenhiniol Henebion Cymru, 2006}
 73
     1
 44
1.0
1001
ACAD
1000
ACAD_MTEXT_DEFINED_HEIGHT_BEGIN
1070
    46
1040
0.0
1000
ACAD_MTEXT_DEFINED_HEIGHT_END
  0
ENDSEC
  0
SECTION
  2
OBJECTS
  0
DICTIONARY
  5
C
330
0
100
AcDbDictionary
281
     1
  3
ACAD_COLOR
350
6B
  3
ACAD_GROUP
350
D
  3
ACAD_IMAGE_DICT
350
E5
  3
ACAD_IMAGE_VARS
350
E6
  3
ACAD_LAYOUT
350
1A
  3
ACAD_MATERIAL
350
6A
  3
ACAD_MLINESTYLE
350
17
  3
ACAD_PLOTSETTINGS
350
19
  3
ACAD_PLOTSTYLENAME
350
E
  3
ACAD_TABLESTYLE
350
7E
  3
AcDbVariableDictionary
350
5E
  0
DICTIONARY
  5
1D2
330
2
100
AcDbDictionary
280
     1
281
     1
  3
ACAD_LAYERFILTERS
360
1D4
  3
ACLYDICTIONARY
360
1D3
  0
DICTIONARY
  5
194
330
1F
100
AcDbDictionary
280
     1
281
     1
  3
ACAD_SORTENTS
360
195
  0
DICTIONARY
  5
256
330
24D
100
AcDbDictionary
280
     1
281
     1
  3
ACAD_SORTENTS
360
257
  0
IMAGEDEF_REACTOR
  5
251
330
250
100
AcDbRasterImageDefReactor
 90
        2
330
250
  0
IMAGEDEF_REACTOR
  5
253
330
252
100
AcDbRasterImageDefReactor
 90
        2
330
252
  0
IMAGEDEF_REACTOR
  5
E8
330
E9
100
AcDbRasterImageDefReactor
 90
        2
330
E9
  0
IMAGEDEF_REACTOR
  5
EB
330
EC
100
AcDbRasterImageDefReactor
 90
        2
330
EC
  0
IMAGEDEF_REACTOR
  5
225
330
224
100
AcDbRasterImageDefReactor
 90
        2
330
224
  0
IMAGEDEF_REACTOR
  5
227
330
226
100
AcDbRasterImageDefReactor
 90
        2
330
226
  0
DICTIONARY
  5
6B
102
{ACAD_REACTORS
330
C
102
}
330
C
100
AcDbDictionary
281
     1
  0
DICTIONARY
  5
D
102
{ACAD_REACTORS
330
C
102
}
330
C
100
AcDbDictionary
281
     1
  0
DICTIONARY
  5
E5
102
{ACAD_REACTORS
330
C
102
}
330
C
100
AcDbDictionary
281
     1
  3
assembly
350
1F1
  3
LOGO
350
1F2
  3
roof scan 1
350
E7
  3
roof scan2
350
EA
  0
RASTERVARIABLES
  5
E6
102
{ACAD_REACTORS
330
C
102
}
330
C
100
AcDbRasterVariables
 90
        0
 70
     1
 71
     1
 72
     1
  0
DICTIONARY
  5
1A
102
{ACAD_REACTORS
330
C
102
}
330
C
100
AcDbDictionary
281
     1
  3
Layout1
350
D3
  3
Layout2
350
D7
  3
Model
350
22
  0
DICTIONARY
  5
6A
102
{ACAD_REACTORS
330
C
102
}
330
C
100
AcDbDictionary
281
     1
  0
DICTIONARY
  5
17
102
{ACAD_REACTORS
330
C
102
}
330
C
100
AcDbDictionary
281
     1
  3
Standard
350
18
  0
DICTIONARY
  5
19
102
{ACAD_REACTORS
330
C
102
}
330
C
100
AcDbDictionary
281
     1
  0
ACDBDICTIONARYWDFLT
  5
E
102
{ACAD_REACTORS
330
C
102
}
330
C
100
AcDbDictionary
281
     1
  3
Normal
350
F
100
AcDbDictionaryWithDefault
340
F
  0
DICTIONARY
  5
7E
102
{ACAD_REACTORS
330
C
102
}
330
C
100
AcDbDictionary
281
     1
  3
Standard
350
7F
  0
DICTIONARY
  5
5E
102
{ACAD_REACTORS
330
C
102
}
330
C
100
AcDbDictionary
281
     1
  3
CTABLESTYLE
350
84
  3
DIMASSOC
350
5F
  3
HIDETEXT
350
63
  0
DICTIONARY
  5
1D4
102
{ACAD_REACTORS
330
1D2
102
}
330
1D2
100
AcDbDictionary
281
     1
  0
DICTIONARY
  5
1D3
102
{ACAD_REACTORS
330
1D2
102
}
330
1D2
100
AcDbDictionary
281
     1
1001
ACAD
1000
<All
  0
SORTENTSTABLE
  5
195
102
{ACAD_REACTORS
330
194
102
}
330
194
100
AcDbSortentsTable
330
1F
331
132
  5
132
331
FB
  5
FB
331
13A
  5
13A
331
1C0
  5
1C1
331
142
  5
142
331
14A
  5
14A
331
189
  5
189
331
199
  5
1AA
331
11B
  5
11B
331
15A
  5
15A
331
2DE
  5
2E4
331
27F
  5
27F
331
287
  5
287
331
12B
  5
12B
331
228
  5
228
331
172
  5
172
331
133
  5
133
331
297
  5
297
331
1C1
  5
1C2
331
13B
  5
13B
331
FC
  5
FC
331
17A
  5
17A
331
182
  5
182
331
143
  5
143
331
2AF
  5
2AF
331
18A
  5
18A
331
14B
  5
14B
331
192
  5
1A0
331
153
  5
153
331
15B
  5
15B
331
11C
  5
11C
331
19A
  5
1A8
331
2DF
  5
2D8
331
124
  5
124
331
1A2
  5
192
331
280
  5
280
331
288
  5
288
331
1AA
  5
19C
331
134
  5
134
331
1BA
  5
1BB
331
229
  5
229
331
13C
  5
13C
331
1C2
  5
1C3
331
2A8
  5
2A9
331
144
  5
144
331
2B0
  5
2B0
331
14C
  5
14C
331
193
  5
1AD
331
115
  5
115
331
154
  5
154
331
2D8
  5
2DE
331
2E0
  5
2D9
331
281
  5
281
331
125
  5
125
331
1A3
  5
193
331
289
  5
289
331
1AB
  5
19D
331
135
  5
135
331
1BB
  5
1BC
331
1C3
  5
1C4
331
13D
  5
13D
331
17C
  5
17C
331
2B1
  5
2B1
331
145
  5
145
331
10E
  5
10E
331
14D
  5
14D
331
116
  5
116
331
2D9
  5
2DF
331
19C
  5
1A7
331
2E1
  5
2DA
331
282
  5
282
331
1A4
  5
197
331
126
  5
126
331
16D
  5
16D
331
28A
  5
28A
331
1AC
  5
19E
331
12E
  5
12E
331
E9
  5
E9
331
F7
  5
F7
331
136
  5
136
331
1BC
  5
1BD
331
FF
  5
FF
331
13E
  5
13E
331
1C4
  5
1C5
331
2AA
  5
2AB
331
146
  5
146
331
10F
  5
10F
331
2DA
  5
2E0
331
19D
  5
1A6
331
27B
  5
27B
331
2E2
  5
2DB
331
224
  5
224
331
127
  5
127
331
283
  5
283
331
12F
  5
12F
331
137
  5
137
331
F8
  5
F8
331
1BD
  5
1BE
331
13F
  5
13F
331
1C5
  5
1C6
331
186
  5
186
331
147
  5
147
331
1CD
  5
1CE
331
2CB
  5
2CB
331
118
  5
118
331
2DB
  5
2E1
331
19E
  5
1A4
331
27C
  5
27C
331
2E3
  5
2DC
331
1A6
  5
198
331
128
  5
128
331
130
  5
130
331
F9
  5
F9
331
138
  5
138
331
1BE
  5
1BF
331
1C6
  5
1C7
331
101
  5
101
331
140
  5
140
331
2AC
  5
2AD
331
1CE
  5
1BA
331
148
  5
148
331
187
  5
187
331
18F
  5
18F
331
2CC
  5
2CC
331
197
  5
1AC
331
119
  5
119
331
2DC
  5
2E2
331
19F
  5
1A3
331
2E4
  5
2DD
331
226
  5
226
331
1A7
  5
199
331
129
  5
129
331
285
  5
285
331
EC
  5
EC
331
131
  5
131
331
1BF
  5
1C0
331
139
  5
139
331
FA
  5
FA
331
178
  5
178
331
102
  5
102
331
141
  5
141
331
1C7
  5
1CD
331
149
  5
149
331
159
  5
159
331
198
  5
1AB
331
2DD
  5
2E3
331
1A0
  5
1A2
331
27E
  5
27E
331
286
  5
286
331
1A8
  5
19A
331
12A
  5
12A
  0
SORTENTSTABLE
  5
257
102
{ACAD_REACTORS
330
256
102
}
330
256
100
AcDbSortentsTable
330
24D
  0
IMAGEDEF
  5
1F1
102
{ACAD_REACTORS
330
E5
330
227
330
253
102
}
330
E5
100
AcDbRasterImageDef
 90
        0
  1
E:\Share\All\Survey Branch Projects\LOGOS\assembly.tif
 10
8016.0
 20
2570.0
 11
0.0211666666666667
 21
0.0211666666666667
280
     1
281
     5
  0
IMAGEDEF
  5
1F2
102
{ACAD_REACTORS
330
E5
330
225
330
251
102
}
330
E5
100
AcDbRasterImageDef
 90
        0
  1
E:\Share\All\Survey Branch Projects\LOGOS\LOGO.tif
 10
4120.0
 20
5032.0
 11
0.0208333333333333
 21
0.0208333333333333
280
     1
281
     2
  0
IMAGEDEF
  5
E7
102
{ACAD_REACTORS
330
E5
330
E8
102
}
330
E5
100
AcDbRasterImageDef
 90
        0
  1
E:\Share\All\Emergency Recording Fieldwork\Ongoing Sites\Haverfordwest church\roof scan 1.tif
 10
3660.0
 20
5160.0
 11
0.0846666666666667
 21
0.0846666666666667
280
     1
281
     5
  0
IMAGEDEF
  5
EA
102
{ACAD_REACTORS
330
E5
330
EB
102
}
330
E5
100
AcDbRasterImageDef
 90
        0
  1
E:\Share\All\Emergency Recording Fieldwork\Ongoing Sites\Haverfordwest church\roof scan2.tif
 10
3660.0
 20
5160.0
 11
0.0846666666666667
 21
0.0846666666666667
280
     1
281
     5
  0
LAYOUT
  5
D3
102
{ACAD_REACTORS
330
1A
102
}
330
1A
100
AcDbPlotSettings
  1

  2
C:\Documents and Settings\basas\Application Data\Autodesk\AutoCAD 2005\R16.1\enu\plotters\Default Windows System Printer.pc3
  4

  6

 40
0.0
 41
0.0
 42
0.0
 43
0.0
 44
0.0
 45
0.0
 46
0.0
 47
0.0
 48
0.0
 49
0.0
140
0.0
141
0.0
142
1.0
143
1.0
 70
   688
 72
     0
 73
     0
 74
     5
  7

 75
    16
147
1.0
 76
     0
 77
     2
 78
   300
148
0.0
149
0.0
100
AcDbLayout
  1
Layout1
 70
     1
 71
     1
 10
0.0
 20
0.0
 11
12.0
 21
9.0
 12
0.0
 22
0.0
 32
0.0
 14
0.0
 24
0.0
 34
0.0
 15
0.0
 25
0.0
 35
0.0
146
0.0
 13
0.0
 23
0.0
 33
0.0
 16
1.0
 26
0.0
 36
0.0
 17
0.0
 27
1.0
 37
0.0
 76
     0
330
D2
  0
LAYOUT
  5
D7
102
{ACAD_REACTORS
330
1A
102
}
330
1A
100
AcDbPlotSettings
  1

  2
C:\Documents and Settings\basas\Application Data\Autodesk\AutoCAD 2005\R16.1\enu\plotters\Default Windows System Printer.pc3
  4

  6

 40
0.0
 41
0.0
 42
0.0
 43
0.0
 44
0.0
 45
0.0
 46
0.0
 47
0.0
 48
0.0
 49
0.0
140
0.0
141
0.0
142
1.0
143
1.0
 70
   688
 72
     0
 73
     0
 74
     5
  7

 75
    16
147
1.0
 76
     0
 77
     2
 78
   300
148
0.0
149
0.0
100
AcDbLayout
  1
Layout2
 70
     1
 71
     2
 10
0.0
 20
0.0
 11
12.0
 21
9.0
 12
0.0
 22
0.0
 32
0.0
 14
0.0
 24
0.0
 34
0.0
 15
0.0
 25
0.0
 35
0.0
146
0.0
 13
0.0
 23
0.0
 33
0.0
 16
1.0
 26
0.0
 36
0.0
 17
0.0
 27
1.0
 37
0.0
 76
     0
330
D6
  0
LAYOUT
  5
22
102
{ACAD_REACTORS
330
1A
102
}
330
1A
100
AcDbPlotSettings
  1

  2
none_device
  4
ISO_A4_(210.00_x_297.00_MM)
  6

 40
7.5
 41
20.0
 42
7.5
 43
20.0
 44
210.0
 45
297.0
 46
11.54999923706054
 47
-13.65000009536743
 48
0.0
 49
0.0
140
0.0
141
0.0
142
1.0
143
8.704084754739808
 70
 11952
 72
     1
 73
     0
 74
     0
  7

 75
     0
147
0.1148885871608098
 76
     0
 77
     2
 78
   300
148
0.0
149
0.0
100
AcDbLayout
  1
Model
 70
     1
 71
     0
 10
0.0
 20
0.0
 11
12.0
 21
9.0
 12
0.0
 22
0.0
 32
0.0
 14
0.0
 24
0.0
 34
0.0
 15
0.0
 25
0.0
 35
0.0
146
0.0
 13
0.0
 23
0.0
 33
0.0
 16
1.0
 26
0.0
 36
0.0
 17
0.0
 27
1.0
 37
0.0
 76
     0
330
1F
1001
ACAD_PSEXT
1000
None
1000
None
1000
Not applicable
1000
The layout will not be plotted unless a new plotter configuration name is selected.
1070
     0
  0
MLINESTYLE
  5
18
102
{ACAD_REACTORS
330
17
102
}
330
17
100
AcDbMlineStyle
  2
STANDARD
 70
     0
  3

 62
   256
 51
90.0
 52
90.0
 71
     2
 49
0.5
 62
   256
  6
BYLAYER
 49
-0.5
 62
   256
  6
BYLAYER
  0
ACDBPLACEHOLDER
  5
F
102
{ACAD_REACTORS
330
E
102
}
330
E
  0
TABLESTYLE
  5
7F
102
{ACAD_REACTORS
330
7E
102
}
330
7E
100
AcDbTableStyle
  3
Standard
 70
     0
 71
     0
 40
1.5
 41
1.5
280
     0
281
     0
  7
Standard
140
4.5
170
     2
 62
     0
 63
     7
283
     0
274
    -2
284
     1
 64
     0
275
    -2
285
     1
 65
     0
276
    -2
286
     1
 66
     0
277
    -2
287
     1
 67
     0
278
    -2
288
     1
 68
     0
279
    -2
289
     1
 69
     0
  7
Standard
140
6.0
170
     5
 62
     0
 63
     7
283
     0
274
    -2
284
     1
 64
     0
275
    -2
285
     1
 65
     0
276
    -2
286
     1
 66
     0
277
    -2
287
     1
 67
     0
278
    -2
288
     1
 68
     0
279
    -2
289
     1
 69
     0
  7
Standard
140
4.5
170
     5
 62
     0
 63
     7
283
     0
274
    -2
284
     1
 64
     0
275
    -2
285
     1
 65
     0
276
    -2
286
     1
 66
     0
277
    -2
287
     1
 67
     0
278
    -2
288
     1
 68
     0
279
    -2
289
     1
 69
     0
  0
DICTIONARYVAR
  5
84
102
{ACAD_REACTORS
330
5E
102
}
330
5E
100
DictionaryVariables
280
     0
  1
STANDARD
  0
DICTIONARYVAR
  5
5F
102
{ACAD_REACTORS
330
5E
102
}
330
5E
100
DictionaryVariables
280
     0
  1
2
  0
DICTIONARYVAR
  5
63
102
{ACAD_REACTORS
330
5E
102
}
330
5E
100
DictionaryVariables
280
     0
  1
1
  0
ENDSEC
  0
EOF
