  0
SECTION
  2
HEADER
  9
$ACADVER
  1
AC1018
  9
$ACADMAINTVER
 70
     0
  9
$DWGCODEPAGE
  3
ANSI_1252
  9
$INSBASE
 10
0.0
 20
0.0
 30
0.0
  9
$EXTMIN
 10
-9256.90960321573
 20
13998.6802898645
 30
0.0
  9
$EXTMAX
 10
-9082.887630104243
 20
14071.76206565691
 30
1.656524041045951
  9
$LIMMIN
 10
0.0
 20
0.0
  9
$LIMMAX
 10
420.0
 20
297.0
  9
$ORTHOMODE
 70
     1
  9
$REGENMODE
 70
     1
  9
$FILLMODE
 70
     1
  9
$QTEXTMODE
 70
     0
  9
$MIRRTEXT
 70
     0
  9
$LTSCALE
 40
1.0
  9
$ATTMODE
 70
     1
  9
$TEXTSIZE
 40
2.5
  9
$TRACEWID
 40
1.0
  9
$TEXTSTYLE
  7
Standard
  9
$CLAYER
  8
Thin line
  9
$CELTYPE
  6
ByLayer
  9
$CECOLOR
 62
   256
  9
$CELTSCALE
 40
1.0
  9
$DISPSILH
 70
     0
  9
$DIMSCALE
 40
1.0
  9
$DIMASZ
 40
2.5
  9
$DIMEXO
 40
0.625
  9
$DIMDLI
 40
3.75
  9
$DIMRND
 40
0.0
  9
$DIMDLE
 40
0.0
  9
$DIMEXE
 40
1.25
  9
$DIMTP
 40
0.0
  9
$DIMTM
 40
0.0
  9
$DIMTXT
 40
2.5
  9
$DIMCEN
 40
2.5
  9
$DIMTSZ
 40
0.0
  9
$DIMTOL
 70
     0
  9
$DIMLIM
 70
     0
  9
$DIMTIH
 70
     0
  9
$DIMTOH
 70
     0
  9
$DIMSE1
 70
     0
  9
$DIMSE2
 70
     0
  9
$DIMTAD
 70
     1
  9
$DIMZIN
 70
     8
  9
$DIMBLK
  1

  9
$DIMASO
 70
     1
  9
$DIMSHO
 70
     1
  9
$DIMPOST
  1

  9
$DIMAPOST
  1

  9
$DIMALT
 70
     0
  9
$DIMALTD
 70
     3
  9
$DIMALTF
 40
0.03937007874016
  9
$DIMLFAC
 40
1.0
  9
$DIMTOFL
 70
     1
  9
$DIMTVP
 40
0.0
  9
$DIMTIX
 70
     0
  9
$DIMSOXD
 70
     0
  9
$DIMSAH
 70
     0
  9
$DIMBLK1
  1

  9
$DIMBLK2
  1

  9
$DIMSTYLE
  2
ISO-25
  9
$DIMCLRD
 70
     0
  9
$DIMCLRE
 70
     0
  9
$DIMCLRT
 70
     0
  9
$DIMTFAC
 40
1.0
  9
$DIMGAP
 40
0.625
  9
$DIMJUST
 70
     0
  9
$DIMSD1
 70
     0
  9
$DIMSD2
 70
     0
  9
$DIMTOLJ
 70
     0
  9
$DIMTZIN
 70
     8
  9
$DIMALTZ
 70
     0
  9
$DIMALTTZ
 70
     0
  9
$DIMUPT
 70
     0
  9
$DIMDEC
 70
     2
  9
$DIMTDEC
 70
     2
  9
$DIMALTU
 70
     2
  9
$DIMALTTD
 70
     3
  9
$DIMTXSTY
  7
Standard
  9
$DIMAUNIT
 70
     0
  9
$DIMADEC
 70
     0
  9
$DIMALTRND
 40
0.0
  9
$DIMAZIN
 70
     0
  9
$DIMDSEP
 70
    44
  9
$DIMATFIT
 70
     3
  9
$DIMFRAC
 70
     0
  9
$DIMLDRBLK
  1

  9
$DIMLUNIT
 70
     2
  9
$DIMLWD
 70
    -2
  9
$DIMLWE
 70
    -2
  9
$DIMTMOVE
 70
     0
  9
$LUNITS
 70
     2
  9
$LUPREC
 70
     4
  9
$SKETCHINC
 40
1.0
  9
$FILLETRAD
 40
0.0
  9
$AUNITS
 70
     0
  9
$AUPREC
 70
     0
  9
$MENU
  1
.
  9
$ELEVATION
 40
0.0
  9
$PELEVATION
 40
0.0
  9
$THICKNESS
 40
0.0
  9
$LIMCHECK
 70
     0
  9
$CHAMFERA
 40
0.0
  9
$CHAMFERB
 40
0.0
  9
$CHAMFERC
 40
0.0
  9
$CHAMFERD
 40
0.0
  9
$SKPOLY
 70
     0
  9
$TDCREATE
 40
2454481.478108449
  9
$TDUCREATE
 40
2454481.478108449
  9
$TDUPDATE
 40
2454502.484898565
  9
$TDUUPDATE
 40
2454502.484898565
  9
$TDINDWG
 40
0.8688154167
  9
$TDUSRTIMER
 40
0.8688114352
  9
$USRTIMER
 70
     1
  9
$ANGBASE
 50
0.0
  9
$ANGDIR
 70
     0
  9
$PDMODE
 70
     0
  9
$PDSIZE
 40
0.0
  9
$PLINEWID
 40
0.0
  9
$SPLFRAME
 70
     0
  9
$SPLINETYPE
 70
     6
  9
$SPLINESEGS
 70
     8
  9
$HANDSEED
  5
580
  9
$SURFTAB1
 70
     6
  9
$SURFTAB2
 70
     6
  9
$SURFTYPE
 70
     6
  9
$SURFU
 70
     6
  9
$SURFV
 70
     6
  9
$UCSBASE
  2

  9
$UCSNAME
  2

  9
$UCSORG
 10
-9287.313610219689
 20
14035.02895730897
 30
0.0
  9
$UCSXDIR
 10
1.0
 20
0.0
 30
0.0
  9
$UCSYDIR
 10
0.0
 20
1.0
 30
0.0
  9
$UCSORTHOREF
  2

  9
$UCSORTHOVIEW
 70
     0
  9
$UCSORGTOP
 10
0.0
 20
0.0
 30
0.0
  9
$UCSORGBOTTOM
 10
0.0
 20
0.0
 30
0.0
  9
$UCSORGLEFT
 10
0.0
 20
0.0
 30
0.0
  9
$UCSORGRIGHT
 10
0.0
 20
0.0
 30
0.0
  9
$UCSORGFRONT
 10
0.0
 20
0.0
 30
0.0
  9
$UCSORGBACK
 10
0.0
 20
0.0
 30
0.0
  9
$PUCSBASE
  2

  9
$PUCSNAME
  2

  9
$PUCSORG
 10
0.0
 20
0.0
 30
0.0
  9
$PUCSXDIR
 10
1.0
 20
0.0
 30
0.0
  9
$PUCSYDIR
 10
0.0
 20
1.0
 30
0.0
  9
$PUCSORTHOREF
  2

  9
$PUCSORTHOVIEW
 70
     0
  9
$PUCSORGTOP
 10
0.0
 20
0.0
 30
0.0
  9
$PUCSORGBOTTOM
 10
0.0
 20
0.0
 30
0.0
  9
$PUCSORGLEFT
 10
0.0
 20
0.0
 30
0.0
  9
$PUCSORGRIGHT
 10
0.0
 20
0.0
 30
0.0
  9
$PUCSORGFRONT
 10
0.0
 20
0.0
 30
0.0
  9
$PUCSORGBACK
 10
0.0
 20
0.0
 30
0.0
  9
$USERI1
 70
     0
  9
$USERI2
 70
     0
  9
$USERI3
 70
     0
  9
$USERI4
 70
     0
  9
$USERI5
 70
     0
  9
$USERR1
 40
0.0
  9
$USERR2
 40
0.0
  9
$USERR3
 40
0.0
  9
$USERR4
 40
0.0
  9
$USERR5
 40
0.0
  9
$WORLDVIEW
 70
     1
  9
$SHADEDGE
 70
     3
  9
$SHADEDIF
 70
    70
  9
$TILEMODE
 70
     1
  9
$MAXACTVP
 70
    64
  9
$PINSBASE
 10
0.0
 20
0.0
 30
0.0
  9
$PLIMCHECK
 70
     0
  9
$PEXTMIN
 10
0.0
 20
0.0
 30
0.0
  9
$PEXTMAX
 10
0.0
 20
0.0
 30
0.0
  9
$PLIMMIN
 10
0.0
 20
0.0
  9
$PLIMMAX
 10
12.0
 20
9.0
  9
$UNITMODE
 70
     0
  9
$VISRETAIN
 70
     1
  9
$PLINEGEN
 70
     0
  9
$PSLTSCALE
 70
     1
  9
$TREEDEPTH
 70
  3020
  9
$CMLSTYLE
  2
Standard
  9
$CMLJUST
 70
     0
  9
$CMLSCALE
 40
20.0
  9
$PROXYGRAPHICS
 70
     1
  9
$MEASUREMENT
 70
     1
  9
$CELWEIGHT
370
    -1
  9
$ENDCAPS
280
     0
  9
$JOINSTYLE
280
     0
  9
$LWDISPLAY
290
     0
  9
$INSUNITS
 70
     4
  9
$HYPERLINKBASE
  1

  9
$STYLESHEET
  1

  9
$XEDIT
290
     1
  9
$CEPSNTYPE
380
     0
  9
$PSTYLEMODE
290
     1
  9
$FINGERPRINTGUID
  2
{FDEAD578-A652-11D2-9A35-0060089B3A3F}
  9
$VERSIONGUID
  2
{BC16827F-FD82-4614-AAC5-817D47419D5B}
  9
$EXTNAMES
290
     1
  9
$PSVPSCALE
 40
0.0
  9
$OLESTARTUP
290
     0
  9
$SORTENTS
280
   127
  9
$INDEXCTL
280
     0
  9
$HIDETEXT
280
     1
  9
$XCLIPFRAME
290
     0
  9
$HALOGAP
280
     0
  9
$OBSCOLOR
 70
   257
  9
$OBSLTYPE
280
     0
  9
$INTERSECTIONDISPLAY
280
     0
  9
$INTERSECTIONCOLOR
 70
   257
  9
$DIMASSOC
280
     2
  9
$PROJECTNAME
  1

  0
ENDSEC
  0
SECTION
  2
CLASSES
  0
CLASS
  1
ACDBDICTIONARYWDFLT
  2
AcDbDictionaryWithDefault
  3
ObjectDBX Classes
 90
        0
 91
        1
280
     0
281
     0
  0
CLASS
  1
DICTIONARYVAR
  2
AcDbDictionaryVar
  3
ObjectDBX Classes
 90
        0
 91
        2
280
     0
281
     0
  0
CLASS
  1
RASTERVARIABLES
  2
AcDbRasterVariables
  3
ISM
 90
        0
 91
        1
280
     0
281
     0
  0
CLASS
  1
IMAGEDEF
  2
AcDbRasterImageDef
  3
ISM
 90
        0
 91
        6
280
     0
281
     0
  0
CLASS
  1
IMAGEDEF_REACTOR
  2
AcDbRasterImageDefReactor
  3
ISM
 90
        1
 91
        3
280
     0
281
     0
  0
CLASS
  1
IMAGE
  2
AcDbRasterImage
  3
ISM
 90
      127
 91
        3
280
     0
281
     1
  0
CLASS
  1
SORTENTSTABLE
  2
AcDbSortentsTable
  3
ObjectDBX Classes
 90
        0
 91
        1
280
     0
281
     0
  0
ENDSEC
  0
SECTION
  2
TABLES
  0
TABLE
  2
VPORT
  5
8
330
0
100
AcDbSymbolTable
 70
     3
  0
VPORT
  5
57F
330
8
100
AcDbSymbolTableRecord
100
AcDbViewportTableRecord
  2
*Active
 70
     0
 10
0.0
 20
0.0
 11
1.0
 21
1.0
 12
-9237.209853963779
 22
14037.63741828895
 13
0.0
 23
0.0
 14
10.0
 24
10.0
 15
10.0
 25
10.0
 16
0.0
 26
0.0
 36
1.0
 17
0.0
 27
0.0
 37
0.0
 40
26.67817157988975
 41
1.788980070339976
 42
50.0
 43
0.0
 44
0.0
 50
0.0
 51
0.0
 71
     0
 72
  1000
 73
     1
 74
     3
 75
     0
 76
     0
 77
     0
 78
     0
281
     0
 65
     1
110
-9287.313610219689
120
14035.02895730897
130
0.0
111
1.0
121
0.0
131
0.0
112
0.0
122
1.0
132
0.0
 79
     0
146
0.0
  0
ENDTAB
  0
TABLE
  2
LTYPE
  5
5
330
0
100
AcDbSymbolTable
 70
     2
  0
LTYPE
  5
14
330
5
100
AcDbSymbolTableRecord
100
AcDbLinetypeTableRecord
  2
ByBlock
 70
     0
  3

 72
    65
 73
     0
 40
0.0
  0
LTYPE
  5
15
330
5
100
AcDbSymbolTableRecord
100
AcDbLinetypeTableRecord
  2
ByLayer
 70
     0
  3

 72
    65
 73
     0
 40
0.0
  0
LTYPE
  5
16
330
5
100
AcDbSymbolTableRecord
100
AcDbLinetypeTableRecord
  2
Continuous
 70
     0
  3
Solid line
 72
    65
 73
     0
 40
0.0
  0
LTYPE
  5
AD
330
5
100
AcDbSymbolTableRecord
100
AcDbLinetypeTableRecord
  2
ACAD_ISO03W100
 70
     0
  3
ISO dash space __    __    __    __    __    __
 72
    65
 73
     2
 40
30.0
 49
12.0
 74
     0
 49
-18.0
 74
     0
  0
ENDTAB
  0
TABLE
  2
LAYER
  5
2
330
0
100
AcDbSymbolTable
 70
    11
  0
LAYER
  5
10
330
2
100
AcDbSymbolTableRecord
100
AcDbLayerTableRecord
  2
0
 70
     0
 62
     7
  6
Continuous
370
    -3
390
F
  0
LAYER
  5
9B
330
2
100
AcDbSymbolTableRecord
100
AcDbLayerTableRecord
  2
Trace
 70
     0
 62
     7
  6
Continuous
370
    18
390
F
  0
LAYER
  5
AE
330
2
100
AcDbSymbolTableRecord
100
AcDbLayerTableRecord
  2
Beams
 70
     0
 62
     7
  6
ACAD_ISO03W100
370
    -3
390
F
  0
LAYER
  5
AF
330
2
100
AcDbSymbolTableRecord
100
AcDbLayerTableRecord
  2
thin dash
 70
     0
 62
     7
  6
ACAD_ISO03W100
370
    -3
390
F
  0
LAYER
  5
319
330
2
100
AcDbSymbolTableRecord
100
AcDbLayerTableRecord
  2
Outline
 70
     0
 62
     7
  6
Continuous
370
    35
390
F
  0
LAYER
  5
33F
330
2
100
AcDbSymbolTableRecord
100
AcDbLayerTableRecord
  2
Recon
 70
     0
 62
    -2
  6
Continuous
370
    35
390
F
  0
LAYER
  5
344
330
2
100
AcDbSymbolTableRecord
100
AcDbLayerTableRecord
  2
Period 1
 70
     0
 62
   252
  6
Continuous
370
    -3
390
F
  0
LAYER
  5
345
330
2
100
AcDbSymbolTableRecord
100
AcDbLayerTableRecord
  2
Period 2
 70
     0
 62
   254
  6
Continuous
370
    -3
390
F
  0
LAYER
  5
436
330
2
100
AcDbSymbolTableRecord
100
AcDbLayerTableRecord
  2
Thin line
 70
     0
 62
     7
  6
Continuous
370
    20
390
F
  0
LAYER
  5
437
330
2
100
AcDbSymbolTableRecord
100
AcDbLayerTableRecord
  2
Lettering
 70
     0
 62
     7
  6
Continuous
370
    25
390
F
  0
LAYER
  5
453
330
2
100
AcDbSymbolTableRecord
100
AcDbLayerTableRecord
  2
text
 70
     0
 62
     7
  6
Continuous
370
    -3
390
F
  0
ENDTAB
  0
TABLE
  2
STYLE
  5
3
330
0
100
AcDbSymbolTable
 70
     3
  0
STYLE
  5
11
330
3
100
AcDbSymbolTableRecord
100
AcDbTextStyleTableRecord
  2
Standard
 70
     0
 40
0.0
 41
1.0
 50
0.0
 71
     0
 42
2.5
  3
txt
  4

  0
STYLE
  5
AC
330
3
100
AcDbSymbolTableRecord
100
AcDbTextStyleTableRecord
  2

 70
     1
 40
0.0
 41
1.0
 50
0.0
 71
     0
 42
2.5
  3
ltypeshp.shx
  4

  0
STYLE
  5
438
330
3
100
AcDbSymbolTableRecord
100
AcDbTextStyleTableRecord
  2
ROMANS
 70
     0
 40
0.0
 41
1.0
 50
0.0
 71
     0
 42
0.2
  3
romans
  4

  0
ENDTAB
  0
TABLE
  2
VIEW
  5
6
330
0
100
AcDbSymbolTable
 70
     0
  0
ENDTAB
  0
TABLE
  2
UCS
  5
7
330
0
100
AcDbSymbolTable
 70
     0
  0
ENDTAB
  0
TABLE
  2
APPID
  5
9
330
0
100
AcDbSymbolTable
 70
     4
  0
APPID
  5
12
330
9
100
AcDbSymbolTableRecord
100
AcDbRegAppTableRecord
  2
ACAD
 70
     0
  0
APPID
  5
91
330
9
100
AcDbSymbolTableRecord
100
AcDbRegAppTableRecord
  2
DCO15
 70
     0
  0
APPID
  5
93
330
9
100
AcDbSymbolTableRecord
100
AcDbRegAppTableRecord
  2
ADE
 70
     0
  0
APPID
  5
43A
330
9
100
AcDbSymbolTableRecord
100
AcDbRegAppTableRecord
  2
RAK
 70
     0
  0
ENDTAB
  0
TABLE
  2
DIMSTYLE
  5
A
330
0
100
AcDbSymbolTable
 70
     2
100
AcDbDimStyleTable
 71
     0
  0
DIMSTYLE
105
27
330
A
100
AcDbSymbolTableRecord
100
AcDbDimStyleTableRecord
  2
ISO-25
 70
     0
 41
2.5
 42
0.625
 43
3.75
 44
1.25
 73
     0
 74
     0
 77
     1
 78
     8
140
2.5
141
2.5
143
0.03937007874016
147
0.625
171
     3
172
     1
271
     2
272
     2
274
     3
278
    44
283
     0
284
     8
340
11
  0
DIMSTYLE
105
439
330
A
100
AcDbSymbolTableRecord
100
AcDbDimStyleTableRecord
  2
STANDARD
 70
     0
271
     3
272
     3
275
     1
279
     2
340
438
  0
ENDTAB
  0
TABLE
  2
BLOCK_RECORD
  5
1
330
0
100
AcDbSymbolTable
 70
     1
  0
BLOCK_RECORD
  5
1F
102
{ACAD_XDICTIONARY
360
429
102
}
330
1
100
AcDbSymbolTableRecord
100
AcDbBlockTableRecord
  2
*Model_Space
340
22
  0
BLOCK_RECORD
  5
50
330
1
100
AcDbSymbolTableRecord
100
AcDbBlockTableRecord
  2
*Paper_Space
340
51
  0
BLOCK_RECORD
  5
55
330
1
100
AcDbSymbolTableRecord
100
AcDbBlockTableRecord
  2
*Paper_Space0
340
56
  0
ENDTAB
  0
ENDSEC
  0
SECTION
  2
BLOCKS
  0
BLOCK
  5
20
330
1F
100
AcDbEntity
  8
0
100
AcDbBlockBegin
  2
*Model_Space
 70
     0
 10
0.0
 20
0.0
 30
0.0
  3
*Model_Space
  1

  0
ENDBLK
  5
21
330
1F
100
AcDbEntity
  8
0
100
AcDbBlockEnd
  0
BLOCK
  5
52
330
50
100
AcDbEntity
 67
     1
  8
0
100
AcDbBlockBegin
  2
*Paper_Space
 70
     0
 10
0.0
 20
0.0
 30
0.0
  3
*Paper_Space
  1

  0
ENDBLK
  5
53
330
50
100
AcDbEntity
 67
     1
  8
0
100
AcDbBlockEnd
  0
BLOCK
  5
57
330
55
100
AcDbEntity
  8
0
100
AcDbBlockBegin
  2
*Paper_Space0
 70
     0
 10
0.0
 20
0.0
 30
0.0
  3
*Paper_Space0
  1

  0
ENDBLK
  5
58
330
55
100
AcDbEntity
  8
0
100
AcDbBlockEnd
  0
ENDSEC
  0
SECTION
  2
ENTITIES
  0
LWPOLYLINE
  5
A6
330
1F
100
AcDbEntity
  8
Trace
100
AcDbPolyline
 90
        2
 70
     0
 43
0.0
 10
-9251.964707904981
 20
14038.58888169243
 10
-9251.00764870578
 20
14038.59031913373
  0
LWPOLYLINE
  5
A7
330
1F
100
AcDbEntity
  8
Trace
100
AcDbPolyline
 90
        2
 70
     0
 43
0.0
 10
-9252.872324642014
 20
14045.19295533311
 10
-9252.896954673936
 20
14049.31362733029
  0
LWPOLYLINE
  5
A8
330
1F
100
AcDbEntity
  8
Trace
100
AcDbPolyline
 90
        7
 70
     0
 43
0.0
 10
-9252.896954673936
 20
14049.31362733029
 10
-9252.38026307756
 20
14049.82025308596
 10
-9244.560041926311
 20
14049.79709423185
 10
-9244.29515126768
 20
14045.17437656924
 10
-9244.29515126768
 20
14045.17437656924
 10
-9244.29515126768
 20
14045.17437656924
 10
-9244.29515126768
 20
14045.17437656924
  0
LWPOLYLINE
  5
A9
330
1F
100
AcDbEntity
  8
Trace
100
AcDbPolyline
 90
        2
 70
     0
 43
0.0
 10
-9250.081902651976
 20
14039.04430448432
 10
-9249.958738226325
 20
14039.04441733461
  0
LWPOLYLINE
  5
AA
330
1F
100
AcDbEntity
  8
Trace
100
AcDbPolyline
 90
        2
 70
     0
 43
0.0
 10
-9252.371013228501
 20
14048.9076427459
 10
-9252.371014450416
 20
14047.86614471511
  0
LWPOLYLINE
  5
B0
330
1F
100
AcDbEntity
  8
Trace
100
AcDbPolyline
 90
        3
 70
     0
 43
0.0
 10
-9252.371015608149
 20
14046.8793953252
 10
-9250.660009112669
 20
14046.89292636067
 10
-9250.650679825128
 20
14049.3695718962
  0
LWPOLYLINE
  5
B1
330
1F
100
AcDbEntity
  8
Trace
100
AcDbPolyline
 90
        3
 70
     0
 43
0.0
 10
-9250.440829097259
 20
14049.36878140856
 10
-9250.431416823593
 20
14046.68887076365
 10
-9252.371015831691
 20
14046.68887303927
  0
LWPOLYLINE
  5
B2
330
1F
100
AcDbEntity
  8
Trace
100
AcDbPolyline
 90
        2
 70
     0
 43
0.0
 10
-9248.77559469874
 20
14049.36250862937
 10
-9248.769160803647
 20
14047.76439911376
  0
LWPOLYLINE
  5
B3
330
1F
100
AcDbEntity
  8
Trace
100
AcDbPolyline
 90
        2
 70
     0
 43
0.0
 10
-9248.572744937058
 20
14045.18382300218
 10
-9248.582841749131
 20
14046.98153744934
  0
LWPOLYLINE
  5
B4
330
1F
100
AcDbEntity
  8
Trace
100
AcDbPolyline
 90
        2
 70
     0
 43
0.0
 10
-9248.769160803647
 20
14047.76439911376
 10
-9248.587290222102
 20
14047.76543120052
  0
LWPOLYLINE
  5
B5
330
1F
100
AcDbEntity
  8
Trace
100
AcDbPolyline
 90
        2
 70
     0
 43
0.0
 10
-9248.76600486389
 20
14046.98049802765
 10
-9248.582841749131
 20
14046.98153744934
  0
LWPOLYLINE
  5
B6
330
1F
100
AcDbEntity
  8
Trace
100
AcDbPolyline
 90
        2
 70
     0
 43
0.0
 10
-9252.888303110749
 20
14047.86619704419
 10
-9252.371014450416
 20
14047.86614471511
  0
LWPOLYLINE
  5
B7
330
1F
100
AcDbEntity
  8
Trace
100
AcDbPolyline
 90
        2
 70
     0
 43
0.0
 10
-9252.883308563957
 20
14047.03059564583
 10
-9252.371015430831
 20
14047.0305134634
  0
LWPOLYLINE
  5
B8
330
1F
100
AcDbEntity
  8
Trace
100
AcDbPolyline
 90
        4
 70
     0
 43
0.0
 10
-9248.77936154157
 20
14044.68063146389
 10
-9248.77936154157
 20
14044.29748317454
 10
-9248.296263315722
 20
14044.30479907632
 10
-9248.296263315722
 20
14044.68063146389
  0
LWPOLYLINE
  5
B9
330
1F
100
AcDbEntity
  8
Trace
100
AcDbPolyline
 90
        4
 70
     0
 43
0.0
 10
-9247.060625433656
 20
14044.90780632484
 10
-9247.058668618263
 20
14045.00607934433
 10
-9246.650409459403
 20
14045.01903326072
 10
-9246.649386894089
 20
14045.18545652048
  0
LWPOLYLINE
  5
BA
330
1F
100
AcDbEntity
  8
Outline
100
AcDbPolyline
 90
        4
 70
     0
 43
0.0
 10
-9246.15142593336
 20
14044.68063146389
 10
-9246.157906261579
 20
14045.01255632798
 10
-9245.205301431028
 20
14045.01255632798
 10
-9245.205301431028
 20
14044.68063146389
  0
LWPOLYLINE
  5
BB
330
1F
100
AcDbEntity
  8
Trace
100
AcDbPolyline
 90
        2
 70
     0
 43
0.0
 10
-9244.915198728682
 20
14047.70914773055
 10
-9244.441952464967
 20
14047.73626565635
  0
LWPOLYLINE
  5
BC
330
1F
100
AcDbEntity
  8
Trace
100
AcDbPolyline
 90
        2
 70
     0
 43
0.0
 10
-9244.865879237295
 20
14046.82100915949
 10
-9244.391065554523
 20
14046.84821690142
  0
LWPOLYLINE
  5
BD
330
1F
100
AcDbEntity
  8
Trace
100
AcDbPolyline
 90
        2
 70
     0
 43
0.0
 10
-9244.479331133204
 20
14046.84315911311
 10
-9244.530218043609
 20
14047.73120786805
  0
LWPOLYLINE
  5
BE
330
1F
100
AcDbEntity
  8
Trace
100
AcDbPolyline
 90
        2
 70
     0
 43
0.0
 10
-9244.530218043609
 20
14047.73120786805
 10
-9244.530228929866
 20
14047.73120724423
  0
LWPOLYLINE
  5
C0
330
1F
100
AcDbEntity
  8
Trace
100
AcDbPolyline
 90
        2
 70
     0
 43
0.0
 10
-9251.964707904981
 20
14038.58888169243
 10
-9251.965123608364
 20
14039.04257896961
  0
LWPOLYLINE
  5
C1
330
1F
100
AcDbEntity
  8
Trace
100
AcDbPolyline
 90
        2
 70
     0
 43
0.0
 10
-9251.007647388716
 20
14038.58888169243
 10
-9251.008063895577
 20
14039.04345588242
  0
LWPOLYLINE
  5
C2
330
1F
100
AcDbEntity
  8
Trace
100
AcDbPolyline
 90
        2
 70
     0
 43
0.0
 10
-9249.958323599619
 20
14038.59189515249
 10
-9249.958738226325
 20
14039.04441733461
  0
LWPOLYLINE
  5
C3
330
1F
100
AcDbEntity
  8
Trace
100
AcDbPolyline
 90
        2
 70
     0
 43
0.0
 10
-9249.15501737893
 20
14039.0451537496
 10
-9249.15501737893
 20
14038.59310166672
  0
LWPOLYLINE
  5
C4
330
1F
100
AcDbEntity
  8
Outline
100
AcDbPolyline
 90
        2
 70
     0
 43
0.0
 10
-9248.1122391885
 20
14038.59477483021
 10
-9248.112635665551
 20
14039.04610883933
  0
LWPOLYLINE
  5
C5
330
1F
100
AcDbEntity
  8
Outline
100
AcDbPolyline
 90
        2
 70
     0
 43
0.0
 10
-9247.179188681611
 20
14039.04696411685
 10
-9247.179197523466
 20
14038.59599193769
  0
LWPOLYLINE
  5
C6
330
1F
100
AcDbEntity
  8
Outline
100
AcDbPolyline
 90
        2
 70
     0
 43
0.0
 10
-9246.211238737258
 20
14038.59719563072
 10
-9246.211648932156
 20
14039.04785063207
  0
LWPOLYLINE
  5
C9
330
1F
100
AcDbEntity
  8
Outline
100
AcDbPolyline
 90
        2
 70
     0
 43
0.0
 10
-9245.29724726617
 20
14038.59833221336
 10
-9245.297656814997
 20
14039.0486880839
  0
LWPOLYLINE
  5
CA
330
1F
100
AcDbEntity
  8
Trace
100
AcDbPolyline
 90
        3
 70
     0
 43
0.0
 10
-9252.891111198712
 20
14038.588888959
 10
-9252.870666575892
 20
14035.68587992975
 10
-9250.300641145777
 20
14035.6882511815
  0
LWPOLYLINE
  5
CB
330
1F
100
AcDbEntity
  8
Trace
100
AcDbPolyline
 90
        8
 70
     0
 43
0.0
 10
-9244.492293875905
 20
14038.59929343507
 10
-9244.492281442893
 20
14035.8852826965
 10
-9248.638859565708
 20
14035.8852826965
 10
-9248.65154018124
 20
14036.72177454675
 10
-9250.490236944825
 20
14036.73444865413
 10
-9250.510588555608
 20
14035.881666605
 10
-9252.671311693529
 20
14035.8852826965
 10
-9252.671311693529
 20
14038.58888169243
  0
LWPOLYLINE
  5
CC
330
1F
100
AcDbEntity
  8
Trace
100
AcDbPolyline
 90
        2
 70
     0
 43
0.0
 10
-9250.300026953132
 20
14035.69517093318
 10
-9250.292872605866
 20
14036.73308822488
  0
LWPOLYLINE
  5
CD
330
1F
100
AcDbEntity
  8
Trace
100
AcDbPolyline
 90
        2
 70
     0
 43
0.0
 10
-9248.841566494887
 20
14036.72308439508
 10
-9248.840834082576
 20
14035.68323039571
  0
LWPOLYLINE
  5
CE
330
1F
100
AcDbEntity
  8
Trace
100
AcDbPolyline
 90
        2
 70
     0
 43
0.0
 10
-9250.294959566513
 20
14036.430322301
 10
-9248.841566494887
 20
14036.430322301
  0
LWPOLYLINE
  5
D0
330
1F
100
AcDbEntity
  8
Trace
100
AcDbPolyline
 90
        2
 70
     0
 43
0.0
 10
-9250.297063608655
 20
14036.12507828361
 10
-9248.841566494887
 20
14036.12507828361
  0
LWPOLYLINE
  5
D1
330
1F
100
AcDbEntity
  8
Trace
100
AcDbPolyline
 90
        3
 70
     0
 43
0.0
 10
-9248.840834082576
 20
14035.68323039571
 10
-9244.264029376976
 20
14035.69517093318
 10
-9244.281010595853
 20
14038.59954573549
  0
LWPOLYLINE
  5
D4
330
1F
100
AcDbEntity
  8
Trace
100
AcDbPolyline
 90
        4
 70
     0
 43
0.0
 10
-9254.227419124928
 20
14049.73794205277
 10
-9254.967098018623
 20
14038.89863843403
 10
-9254.967098018623
 20
14038.89863843403
 10
-9254.813381452315
 20
14038.89222476109
  0
LWPOLYLINE
  5
D5
330
1F
100
AcDbEntity
  8
Trace
100
AcDbPolyline
 90
        3
 70
     0
 43
0.0
 10
-9254.813381452315
 20
14038.89222476109
 10
-9254.801191781117
 20
14037.53165110229
 10
-9255.038690280986
 20
14036.35609164239
  0
LWPOLYLINE
  5
D7
330
1F
100
AcDbEntity
  8
Beams
 48
0.02
100
AcDbPolyline
 90
        2
 70
     0
 43
0.0
 10
-9250.24170777967
 20
14039.04404491363
 10
-9250.24170777967
 20
14044.68063146389
  0
LWPOLYLINE
  5
D8
330
1F
100
AcDbEntity
  8
Beams
 48
0.02
100
AcDbPolyline
 90
        2
 70
     0
 43
0.0
 10
-9248.388315093665
 20
14039.04567238046
 10
-9248.337142137629
 20
14044.30114112544
  0
LWPOLYLINE
  5
D9
330
1F
100
AcDbEntity
  8
Beams
 48
0.02
100
AcDbPolyline
 90
        2
 70
     0
 43
0.0
 10
-9246.379687871982
 20
14039.04756937362
 10
-9246.379687871982
 20
14044.68063146389
  0
LWPOLYLINE
  5
DA
330
1F
100
AcDbEntity
  8
Beams
 48
0.02
100
AcDbPolyline
 90
        2
 70
     0
 43
0.0
 10
-9246.413251879468
 20
14045.18435329694
 10
-9246.443226734781
 20
14049.35393597037
  0
LWPOLYLINE
  5
DB
330
1F
100
AcDbEntity
  8
Trace
100
AcDbPolyline
 90
        2
 70
     0
 43
0.0
 10
-9248.587290222102
 20
14047.76543120052
 10
-9248.596349552061
 20
14049.36183343
  0
LWPOLYLINE
  5
DC
330
1F
100
AcDbEntity
  8
Trace
100
AcDbPolyline
 90
        2
 70
     0
 43
0.0
 10
-9248.76600486389
 20
14046.98049802765
 10
-9248.758860502807
 20
14045.18421871809
  0
LWPOLYLINE
  5
DE
330
1F
100
AcDbEntity
  8
Trace
100
AcDbPolyline
 90
        8
 70
     0
 43
0.0
 10
-9244.774415120492
 20
14045.17393600922
 10
-9244.774415120492
 20
14045.17393600922
 10
-9244.961145926742
 20
14048.53655851102
 10
-9245.85210131242
 20
14049.35149610865
 10
-9251.96248146614
 20
14049.37451332787
 10
-9252.371013228501
 20
14048.9076427459
 10
-9252.371013228501
 20
14048.9076427459
 10
-9252.371013228501
 20
14048.9076427459
  0
LWPOLYLINE
  5
DF
330
1F
100
AcDbEntity
  8
Trace
100
AcDbPolyline
 90
        3
 70
     0
 43
0.0
 10
-9248.296263315722
 20
14044.68063146389
 10
-9252.411468207837
 20
14044.68063146389
 10
-9252.410822975432
 20
14039.04217059435
  0
LWPOLYLINE
  5
E0
330
1F
100
AcDbEntity
  8
Trace
100
AcDbPolyline
 90
        3
 70
     0
 43
0.0
 10
-9252.371015430831
 20
14047.0305134634
 10
-9252.333788281688
 20
14045.19142336124
 10
-9252.333788281688
 20
14045.19142336124
  0
LWPOLYLINE
  5
E1
330
1F
100
AcDbEntity
  8
Outline
100
AcDbPolyline
 90
        4
 70
     0
 43
0.0
 10
-9245.297656814997
 20
14039.0486880839
 10
-9244.767147793941
 20
14039.04917416662
 10
-9244.807299509504
 20
14044.68063146389
 10
-9245.205301431028
 20
14044.68063146389
  0
LWPOLYLINE
  5
E3
330
1F
100
AcDbEntity
  8
Trace
100
AcDbPolyline
 90
        2
 70
     0
 43
0.0
 10
-9244.774402431579
 20
14045.17663211217
 10
-9244.774402431579
 20
14045.17663211217
  0
LWPOLYLINE
  5
E4
330
1F
100
AcDbEntity
  8
Outline
100
AcDbPolyline
 90
        2
 70
     0
 43
0.0
 10
-9246.15142593336
 20
14044.68063146389
 10
-9247.065148946484
 20
14044.68063146389
  0
LWPOLYLINE
  5
E5
330
1F
100
AcDbEntity
  8
thin dash
 48
0.01
100
AcDbPolyline
 90
        2
 70
     0
 43
0.0
 10
-9252.371015430831
 20
14047.0305134634
 10
-9252.371014450416
 20
14047.86614471511
  0
LWPOLYLINE
  5
E6
330
1F
100
AcDbEntity
  8
thin dash
 48
0.01
100
AcDbPolyline
 90
        2
 70
     0
 43
0.0
 10
-9248.293175175488
 20
14045.18322858548
 10
-9246.649462638789
 20
14045.17312901541
  0
LWPOLYLINE
  5
E7
330
1F
100
AcDbEntity
  8
thin dash
 48
0.01
100
AcDbPolyline
 90
        2
 70
     0
 43
0.0
 10
-9248.296263315722
 20
14044.68063146389
 10
-9247.065148946484
 20
14044.68063146389
  0
LWPOLYLINE
  5
EA
330
1F
100
AcDbEntity
  8
thin dash
 48
0.01
100
AcDbPolyline
 90
        2
 70
     0
 43
0.0
 10
-9246.151774081029
 20
14044.6984637191
 10
-9245.205301431028
 20
14044.6984637191
  0
LWPOLYLINE
  5
EB
330
1F
100
AcDbEntity
  8
thin dash
 48
0.02
100
AcDbPolyline
 90
        2
 70
     0
 43
0.0
 10
-9249.958738226325
 20
14039.04441733461
 10
-9249.15501737893
 20
14039.0451537496
  0
LWPOLYLINE
  5
EE
330
1F
100
AcDbEntity
  8
thin dash
 48
0.01
100
AcDbPolyline
 90
        4
 70
     0
 43
0.0
 10
-9250.653759609058
 20
14038.5896158458
 10
-9250.647429721579
 20
14037.31853957505
 10
-9248.451303281781
 20
14037.31853957505
 10
-9248.452895826799
 20
14038.5942388529
  0
CIRCLE
  5
EF
330
1F
100
AcDbEntity
  8
Trace
100
AcDbCircle
 10
-9250.287944531772
 20
14037.55371726135
 30
0.0
 40
0.1306543856977155
  0
CIRCLE
  5
F0
330
1F
100
AcDbEntity
  8
Trace
100
AcDbCircle
 10
-9248.830396308152
 20
14037.55371726135
 30
0.0
 40
0.1306543856977155
  0
LWPOLYLINE
  5
1AB
330
1F
100
AcDbEntity
  8
Trace
100
AcDbPolyline
 90
        3
 70
     0
 43
0.0
 10
-9239.789141943653
 20
14046.14804863506
 10
-9239.789141943653
 20
14046.14804863506
 10
-9239.789141943653
 20
14046.14804863506
  0
LWPOLYLINE
  5
1DC
330
1F
100
AcDbEntity
  8
Trace
100
AcDbPolyline
 90
        7
 70
     0
 43
0.0
 10
-9237.073102147723
 20
14046.07601413374
 10
-9240.344643187864
 20
14046.08389295558
 10
-9240.344643187864
 20
14046.08389295558
 10
-9240.344643187864
 20
14046.08389295558
 10
-9240.344643187864
 20
14046.08389295558
 10
-9240.344643187864
 20
14046.08389295558
 10
-9240.344643187864
 20
14046.08389295558
  0
LWPOLYLINE
  5
1DD
330
1F
100
AcDbEntity
  8
Outline
100
AcDbPolyline
 90
        3
 70
     0
 43
0.0
 10
-9235.598068023508
 20
14043.89512982442
 10
-9235.598068023508
 20
14043.89512982442
 10
-9236.417200523575
 20
14043.89512982442
  0
LWPOLYLINE
  5
1E0
330
1F
100
AcDbEntity
  8
Outline
100
AcDbPolyline
 90
        2
 70
     0
 43
0.0
 10
-9235.483468975244
 20
14043.89512982442
 10
-9235.483468975244
 20
14041.84817384565
  0
LWPOLYLINE
  5
1E1
330
1F
100
AcDbEntity
  8
Trace
100
AcDbPolyline
 90
        3
 70
     0
 43
0.0
 10
-9235.195011469903
 20
14043.78417543595
 10
-9235.195011469903
 20
14040.41108677167
 10
-9235.193485351151
 20
14039.37010810041
  0
LWPOLYLINE
  5
1E2
330
1F
100
AcDbEntity
  8
Trace
100
AcDbPolyline
 90
        2
 70
     0
 43
0.0
 10
-9241.780512286448
 20
14039.94289331342
 10
-9241.797535717967
 20
14039.14274392606
  0
LWPOLYLINE
  5
1EA
330
1F
100
AcDbEntity
  8
Outline
100
AcDbPolyline
 90
        5
 70
     0
 43
0.0
 10
-9235.483468975244
 20
14043.89512982442
 10
-9235.492700010444
 20
14043.93625372134
 10
-9235.598068023508
 20
14043.93625372134
 10
-9235.598068023508
 20
14043.7044440926
 10
-9235.483468975244
 20
14043.7044440926
  0
LWPOLYLINE
  5
1F6
330
1F
100
AcDbEntity
  8
Outline
100
AcDbPolyline
 90
        3
 70
     0
 43
0.0
 10
-9235.7985763807
 20
14043.48667839824
 10
-9235.7985763807
 20
14043.48667839824
 10
-9235.810109815746
 20
14041.75647777935
  0
LWPOLYLINE
  5
1F7
330
1F
100
AcDbEntity
  8
Outline
100
AcDbPolyline
 90
        3
 70
     0
 43
0.0
 10
-9235.7985763807
 20
14043.48667839824
 10
-9235.876847878186
 20
14043.50705672837
 10
-9235.936551431425
 20
14043.89512982442
  0
LWPOLYLINE
  5
1FA
330
1F
100
AcDbEntity
  8
Outline
100
AcDbPolyline
 90
        2
 70
     0
 43
0.0
 10
-9235.8005590846
 20
14043.1892409478
 10
-9236.436977187322
 20
14043.82568479819
  0
LWPOLYLINE
  5
1FB
330
1F
100
AcDbEntity
  8
Outline
100
AcDbPolyline
 90
        2
 70
     0
 43
0.0
 10
-9235.802666125469
 20
14042.87315095405
 10
-9236.591021802054
 20
14043.68269835075
  0
LWPOLYLINE
  5
206
330
1F
100
AcDbEntity
  8
Outline
100
AcDbPolyline
 90
        3
 70
     0
 43
0.0
 10
-9235.492700010444
 20
14043.93625372134
 10
-9235.623336735761
 20
14044.10586585056
 10
-9236.417200523575
 20
14044.10587332429
  0
LWPOLYLINE
  5
209
330
1F
100
AcDbEntity
  8
Outline
100
AcDbPolyline
 90
        3
 70
     0
 43
0.0
 10
-9235.808441469167
 20
14042.00675657891
 10
-9235.808441469167
 20
14042.00675657891
 10
-9236.652487171076
 20
14042.00667450834
  0
LWPOLYLINE
  5
20A
330
1F
100
AcDbEntity
  8
Outline
100
AcDbPolyline
 90
        3
 70
     0
 43
0.0
 10
-9235.809494674425
 20
14041.84875886388
 10
-9235.809494674425
 20
14041.84875886388
 10
-9236.643853358684
 20
14041.84862248875
  0
LWPOLYLINE
  5
20C
330
1F
100
AcDbEntity
  8
Trace
100
AcDbPolyline
 90
        2
 70
     0
 43
0.0
 10
-9235.752395840696
 20
14043.85584301865
 10
-9235.752395840696
 20
14043.81367970831
  0
LWPOLYLINE
  5
20F
330
1F
100
AcDbEntity
  8
Outline
100
AcDbPolyline
 90
        2
 70
     0
 43
0.0
 10
-9235.770715201708
 20
14043.82500716483
 10
-9235.752395840696
 20
14043.86905838457
  0
LWPOLYLINE
  5
210
330
1F
100
AcDbEntity
  8
Outline
100
AcDbPolyline
 90
        2
 70
     0
 43
0.0
 10
-9235.734076479685
 20
14043.82500716483
 10
-9235.752395840696
 20
14043.86905838457
  0
LWPOLYLINE
  5
214
330
1F
100
AcDbEntity
  8
Outline
100
AcDbPolyline
 90
        4
 70
     0
 43
0.0
 10
-9235.617003942818
 20
14041.84817384565
 10
-9235.617003942818
 20
14042.01153762695
 10
-9235.543246333675
 20
14042.01153762695
 10
-9235.543246333675
 20
14041.84817384565
  0
LWPOLYLINE
  5
215
330
1F
100
AcDbEntity
  8
Outline
100
AcDbPolyline
 90
        3
 70
     0
 43
0.0
 10
-9235.525616180472
 20
14041.84817384565
 10
-9235.525616180472
 20
14042.01033109976
 10
-9235.483468975244
 20
14042.01033109976
  0
LWPOLYLINE
  5
216
330
1F
100
AcDbEntity
  8
Outline
100
AcDbPolyline
 90
        2
 70
     0
 43
0.0
 10
-9235.617003942818
 20
14041.84817384565
 10
-9235.543246333675
 20
14041.84817384565
  0
LWPOLYLINE
  5
217
330
1F
100
AcDbEntity
  8
Trace
100
AcDbPolyline
 90
        2
 70
     0
 43
0.0
 10
-9235.483468975244
 20
14041.84817384565
 10
-9235.483468975244
 20
14041.75515059944
  0
CIRCLE
  5
219
330
1F
100
AcDbEntity
  8
Trace
100
AcDbCircle
 10
-9235.761477733774
 20
14041.88593686039
 30
0.0
 40
0.0158052019597071
  0
CIRCLE
  5
21A
330
1F
100
AcDbEntity
  8
Trace
100
AcDbCircle
 10
-9235.763204496242
 20
14041.96460371933
 30
0.0
 40
0.0158052019597071
  0
CIRCLE
  5
21B
330
1F
100
AcDbEntity
  8
Trace
100
AcDbCircle
 10
-9235.739029624609
 20
14042.94650727846
 30
0.0
 40
0.0158052019597071
  0
CIRCLE
  5
21C
330
1F
100
AcDbEntity
  8
Trace
100
AcDbCircle
 10
-9235.661873669043
 20
14043.93470685196
 30
0.0
 40
0.0158052019597071
  0
CIRCLE
  5
21E
330
1F
100
AcDbEntity
  8
Trace
100
AcDbCircle
 10
-9235.80041675885
 20
14043.9299736444
 30
0.0
 40
0.0158052019597071
  0
CIRCLE
  5
232
330
1F
100
AcDbEntity
  8
thin dash
 48
0.01
100
AcDbCircle
 10
-9236.655858013625
 20
14043.93054512454
 30
0.0
 40
0.0158052019597071
  0
CIRCLE
  5
233
330
1F
100
AcDbEntity
  8
thin dash
 48
0.01
100
AcDbCircle
 10
-9235.889302130892
 20
14044.07266726011
 30
0.0
 40
0.0158052019597071
  0
CIRCLE
  5
23D
330
1F
100
AcDbEntity
  8
thin dash
 48
0.01
100
AcDbCircle
 10
-9238.795870794545
 20
14047.45770956148
 30
0.0
 40
0.0158052019597071
  0
CIRCLE
  5
23F
330
1F
100
AcDbEntity
  8
Trace
100
AcDbCircle
 10
-9237.708806811944
 20
14046.20984193271
 30
0.0
 40
0.0158052019597071
  0
CIRCLE
  5
240
330
1F
100
AcDbEntity
  8
Trace
100
AcDbCircle
 10
-9237.830440187696
 20
14046.33401539214
 30
0.0
 40
0.0158052019597071
  0
CIRCLE
  5
241
330
1F
100
AcDbEntity
  8
Trace
100
AcDbCircle
 10
-9239.672545250463
 20
14046.28088152995
 30
0.0
 40
0.0158052019597071
  0
CIRCLE
  5
242
330
1F
100
AcDbEntity
  8
Trace
100
AcDbCircle
 10
-9239.559189120972
 20
14046.40127623379
 30
0.0
 40
0.0158052019597071
  0
LWPOLYLINE
  5
244
330
1F
100
AcDbEntity
  8
Outline
100
AcDbPolyline
 90
        3
 70
     0
 43
0.0
 10
-9237.705567651993
 20
14046.14804119743
 10
-9239.662047324411
 20
14046.1871208228
 10
-9239.662047324411
 20
14046.1871208228
  0
LWPOLYLINE
  5
245
330
1F
100
AcDbEntity
  8
Outline
100
AcDbPolyline
 90
        3
 70
     0
 43
0.0
 10
-9239.495014645262
 20
14046.40556265715
 10
-9239.495014645262
 20
14046.40556265715
 10
-9237.899421905543
 20
14046.36897839511
  0
LWPOLYLINE
  5
246
330
1F
100
AcDbEntity
  8
Trace
100
AcDbPolyline
 90
        3
 70
     0
 43
0.0
 10
-9237.903722575337
 20
14046.14804863506
 10
-9237.903722575337
 20
14046.14804863506
 10
-9237.903722575337
 20
14046.14804863506
  0
LWPOLYLINE
  5
247
330
1F
100
AcDbEntity
  8
Trace
100
AcDbPolyline
 90
        2
 70
     0
 43
0.0
 10
-9241.262156232115
 20
14044.094531955
 10
-9241.262114895899
 20
14044.09458601364
  0
LWPOLYLINE
  5
248
330
1F
100
AcDbEntity
  8
Trace
100
AcDbPolyline
 90
        2
 70
     0
 43
0.0
 10
-9241.616174983112
 20
14044.094531955
 10
-9241.616131082434
 20
14044.0945893448
  0
LWPOLYLINE
  5
249
330
1F
100
AcDbEntity
  8
Outline
100
AcDbPolyline
 90
        2
 70
     0
 43
0.0
 10
-9237.647163012733
 20
14046.08147697667
 10
-9238.045650545473
 20
14046.53563631122
  0
LWPOLYLINE
  5
24C
330
1F
100
AcDbEntity
  8
thin dash
 48
0.01
100
AcDbPolyline
 90
        2
 70
     0
 43
0.0
 10
-9241.778923361659
 20
14043.92354605247
 10
-9241.647290963813
 20
14044.09458963801
  0
LWPOLYLINE
  5
259
330
1F
100
AcDbEntity
  8
Trace
100
AcDbPolyline
 90
        2
 70
     0
 43
0.0
 10
-9235.8005590846
 20
14043.1892409478
 10
-9235.8005590846
 20
14043.1892409478
  0
LWPOLYLINE
  5
25A
330
1F
100
AcDbEntity
  8
Trace
100
AcDbPolyline
 90
        3
 70
     0
 43
0.0
 10
-9236.506419404122
 20
14043.89512982442
 10
-9236.506419404122
 20
14043.89512982442
 10
-9236.506419404122
 20
14043.89512982442
  0
LWPOLYLINE
  5
25B
330
1F
100
AcDbEntity
  8
Trace
100
AcDbPolyline
 90
        2
 70
     0
 43
0.0
 10
-9235.525616180472
 20
14041.84817384565
 10
-9235.483468975244
 20
14041.84817384565
  0
LWPOLYLINE
  5
25C
330
1F
100
AcDbEntity
  8
Trace
100
AcDbPolyline
 90
        2
 70
     0
 43
0.0
 10
-9235.617003942818
 20
14041.98040879886
 10
-9235.543246333675
 20
14041.98040879886
  0
LWPOLYLINE
  5
25D
330
1F
100
AcDbEntity
  8
Trace
100
AcDbPolyline
 90
        2
 70
     0
 43
0.0
 10
-9235.616310999786
 20
14041.95371494505
 10
-9235.542553390644
 20
14041.95371494505
  0
LWPOLYLINE
  5
25E
330
1F
100
AcDbEntity
  8
Trace
100
AcDbPolyline
 90
        2
 70
     0
 43
0.0
 10
-9235.617003942818
 20
14041.90173367175
 10
-9235.543246333675
 20
14041.90173367175
  0
LWPOLYLINE
  5
25F
330
1F
100
AcDbEntity
  8
Trace
100
AcDbPolyline
 90
        2
 70
     0
 43
0.0
 10
-9235.616310999786
 20
14041.87923988894
 10
-9235.542553390644
 20
14041.87923988894
  0
LWPOLYLINE
  5
26D
330
1F
100
AcDbEntity
  8
Trace
100
AcDbPolyline
 90
        3
 70
     0
 43
0.0
 10
-9083.186684244386
 20
14071.33539411778
 10
-9083.260968170984
 20
14071.3547342662
 10
-9083.317630104245
 20
14071.7230368324
  0
LWPOLYLINE
  5
26E
330
1F
100
AcDbEntity
  8
Trace
100
AcDbPolyline
 90
        2
 70
     0
 43
0.0
 10
-9082.887630104243
 20
14071.7230368324
 10
-9082.887630104243
 20
14069.78036379602
  0
LWPOLYLINE
  5
26F
330
1F
100
AcDbEntity
  8
Trace
100
AcDbPolyline
 90
        5
 70
     0
 43
0.0
 10
-9082.887630104243
 20
14071.7230368324
 10
-9082.896390860879
 20
14071.76206565691
 10
-9082.996390860881
 20
14071.76206565691
 10
-9082.996390860881
 20
14071.54206565691
 10
-9082.887630104243
 20
14071.54206565691
  0
LWPOLYLINE
  5
270
330
1F
100
AcDbEntity
  8
Trace
100
AcDbPolyline
 90
        3
 70
     0
 43
0.0
 10
-9083.186684244386
 20
14071.33539411778
 10
-9083.186684244386
 20
14071.33539411778
 10
-9083.197630104242
 20
14069.69333922031
  0
LWPOLYLINE
  5
271
330
1F
100
AcDbEntity
  8
Trace
100
AcDbPolyline
 90
        3
 70
     0
 43
0.0
 10
-9083.197046301526
 20
14069.78091901027
 10
-9083.197046301526
 20
14069.78091901027
 10
-9083.988898268737
 20
14069.78078958282
  0
LWPOLYLINE
  5
272
330
1F
100
AcDbEntity
  8
Trace
100
AcDbPolyline
 90
        3
 70
     0
 43
0.0
 10
-9083.19604675221
 20
14069.93086747228
 10
-9083.19604675221
 20
14069.93086747228
 10
-9083.997092228305
 20
14069.93078958282
  0
LWPOLYLINE
  5
273
330
1F
100
AcDbEntity
  8
Trace
100
AcDbPolyline
 90
        2
 70
     0
 43
0.0
 10
-9083.014362082661
 20
14069.87592651622
 10
-9082.944362082661
 20
14069.87592651622
  0
LWPOLYLINE
  5
274
330
1F
100
AcDbEntity
  8
Trace
100
AcDbPolyline
 90
        2
 70
     0
 43
0.0
 10
-9082.927630104242
 20
14069.80130133447
 10
-9082.887630104243
 20
14069.80130133447
  0
LWPOLYLINE
  5
275
330
1F
100
AcDbEntity
  8
Trace
100
AcDbPolyline
 90
        2
 70
     0
 43
0.0
 10
-9082.927630104242
 20
14069.83119499663
 10
-9082.887630104243
 20
14069.83119499663
  0
LWPOLYLINE
  5
276
330
1F
100
AcDbEntity
  8
Trace
100
AcDbPolyline
 90
        2
 70
     0
 43
0.0
 10
-9082.927630104242
 20
14069.87592651622
 10
-9082.887630104243
 20
14069.87592651622
  0
LWPOLYLINE
  5
277
330
1F
100
AcDbEntity
  8
Trace
100
AcDbPolyline
 90
        2
 70
     0
 43
0.0
 10
-9082.927630104242
 20
14069.90586198979
 10
-9082.887630104243
 20
14069.90586198979
  0
LWPOLYLINE
  5
278
330
1F
100
AcDbEntity
  8
Trace
100
AcDbPolyline
 90
        2
 70
     0
 43
0.0
 10
-9083.014362082661
 20
14069.80130133447
 10
-9082.944362082661
 20
14069.80130133447
  0
LWPOLYLINE
  5
279
330
1F
100
AcDbEntity
  8
Trace
100
AcDbPolyline
 90
        2
 70
     0
 43
0.0
 10
-9083.014362082661
 20
14069.83119499663
 10
-9082.944362082661
 20
14069.83119499663
  0
LWPOLYLINE
  5
27A
330
1F
100
AcDbEntity
  8
Trace
100
AcDbPolyline
 90
        2
 70
     0
 43
0.0
 10
-9083.014362082661
 20
14069.90586198979
 10
-9082.944362082661
 20
14069.90586198979
  0
LWPOLYLINE
  5
27B
330
1F
100
AcDbEntity
  8
Trace
100
AcDbPolyline
 90
        2
 70
     0
 43
0.0
 10
-9082.927630104242
 20
14069.78036379602
 10
-9082.887630104243
 20
14069.78036379602
  0
LWPOLYLINE
  5
27C
330
1F
100
AcDbEntity
  8
Trace
100
AcDbPolyline
 90
        2
 70
     0
 43
0.0
 10
-9083.014362082661
 20
14069.78036379602
 10
-9082.944362082661
 20
14069.78036379602
  0
LWPOLYLINE
  5
27D
330
1F
100
AcDbEntity
  8
Trace
100
AcDbPolyline
 90
        3
 70
     0
 43
0.0
 10
-9082.927630104242
 20
14069.78036379602
 10
-9082.927630104242
 20
14069.93425988782
 10
-9082.887630104243
 20
14069.93425988782
  0
LWPOLYLINE
  5
27E
330
1F
100
AcDbEntity
  8
Trace
100
AcDbPolyline
 90
        4
 70
     0
 43
0.0
 10
-9083.014362082661
 20
14069.78036379602
 10
-9083.014362082661
 20
14069.93540494802
 10
-9082.944362082661
 20
14069.93540494802
 10
-9082.944362082661
 20
14069.78036379602
  0
CIRCLE
  5
27F
330
1F
100
AcDbEntity
  8
Trace
100
AcDbCircle
 10
-9083.153114393885
 20
14069.89086210599
 30
0.0
 40
0.015
  0
CIRCLE
  5
280
330
1F
100
AcDbEntity
  8
Trace
100
AcDbCircle
 10
-9083.151475601985
 20
14069.81620295977
 30
0.0
 40
0.015
  0
CIRCLE
  5
281
330
1F
100
AcDbEntity
  8
Trace
100
AcDbCircle
 10
-9083.130171120185
 20
14070.82274221891
 30
0.0
 40
0.015
  0
LWPOLYLINE
  5
284
330
1F
100
AcDbEntity
  8
thin dash
 48
0.01
100
AcDbPolyline
 90
        5
 70
     0
 43
0.0
 10
-9241.779716489229
 20
14043.92481073998
 10
-9241.774172541498
 20
14043.92491982578
 10
-9241.668804528432
 20
14043.92491982578
 10
-9241.668804528432
 20
14043.69311019704
 10
-9241.783403576695
 20
14043.69311019704
  0
LWPOLYLINE
  5
2B1
330
1F
100
AcDbEntity
  8
thin dash
 48
0.01
100
AcDbPolyline
 90
        2
 70
     0
 43
0.0
 10
-9241.463912905444
 20
14042.86181705849
 10
-9240.417424884837
 20
14043.88273220662
  0
LWPOLYLINE
  5
2B2
330
1F
100
AcDbEntity
  8
thin dash
 48
0.01
100
AcDbPolyline
 90
        2
 70
     0
 43
0.0
 10
-9241.464947033415
 20
14043.17470563323
 10
-9240.746597846754
 20
14043.88454346313
  0
LWPOLYLINE
  5
2BA
330
1F
100
AcDbEntity
  8
thin dash
100
AcDbPolyline
 90
        2
 70
     0
 43
0.0
 10
-9240.093750654356
 20
14046.08452900891
 10
-9240.094049864465
 20
14046.08413790425
  0
LWPOLYLINE
  5
2BD
330
1F
100
AcDbEntity
  8
thin dash
 48
0.01
100
AcDbPolyline
 90
        3
 70
     0
 43
0.0
 10
-9241.668804528432
 20
14043.88379592887
 10
-9241.668804528432
 20
14043.69311019704
 10
-9241.780512286448
 20
14043.69311019704
  0
LWPOLYLINE
  5
2BE
330
1F
100
AcDbEntity
  8
thin dash
 48
0.01
100
AcDbPolyline
 90
        2
 70
     0
 43
0.0
 10
-9241.780512286448
 20
14043.92491982578
 10
-9241.780512286448
 20
14040.1491933388
  0
LWPOLYLINE
  5
2BF
330
1F
100
AcDbEntity
  8
thin dash
 48
0.01
100
AcDbPolyline
 90
        4
 70
     0
 43
0.0
 10
-9241.329128047652
 20
14043.88379592887
 10
-9241.388831600891
 20
14043.49572283281
 10
-9241.467103098372
 20
14043.47534450269
 10
-9241.459396286506
 20
14040.14851559168
  0
LWPOLYLINE
  5
2C0
330
1F
100
AcDbEntity
  8
thin dash
 48
0.01
100
AcDbPolyline
 90
        2
 70
     0
 43
0.0
 10
-9241.463674720852
 20
14041.99540368651
 10
-9236.652487171076
 20
14042.00667450834
  0
LWPOLYLINE
  5
2C2
330
1F
100
AcDbEntity
  8
thin dash
 48
0.01
100
AcDbPolyline
 90
        2
 70
     0
 43
0.0
 10
-9241.463308714825
 20
14041.83740846533
 10
-9236.643853358684
 20
14041.84862248875
  0
LWPOLYLINE
  5
2CA
330
1F
100
AcDbEntity
  8
thin dash
 48
0.01
100
AcDbPolyline
 90
        3
 70
     0
 43
0.0
 10
-9239.749110512741
 20
14046.53527942702
 10
-9238.80210995342
 20
14047.77325982772
 10
-9237.714995838002
 20
14046.53551230296
  0
LWPOLYLINE
  5
2CC
330
1F
100
AcDbEntity
  8
thin dash
 48
0.01
100
AcDbPolyline
 90
        2
 70
     0
 43
0.0
 10
-9239.39543166359
 20
14046.53579519187
 10
-9238.766984921584
 20
14047.35766465963
  0
LWPOLYLINE
  5
2CE
330
1F
100
AcDbEntity
  8
thin dash
 48
0.01
100
AcDbPolyline
 90
        2
 70
     0
 43
0.0
 10
-9239.740831328729
 20
14046.08408875443
 10
-9241.262114895899
 20
14044.09458601364
  0
LWPOLYLINE
  5
2CF
330
1F
100
AcDbEntity
  8
thin dash
100
AcDbPolyline
 90
        2
 70
     0
 43
0.0
 10
-9241.616131077702
 20
14044.0945893448
 10
-9241.616174983112
 20
14044.094531955
  0
LWPOLYLINE
  5
2D1
330
1F
100
AcDbEntity
  8
thin dash
 48
0.01
100
AcDbPolyline
 90
        2
 70
     0
 43
0.0
 10
-9240.093750654356
 20
14046.08452900891
 10
-9241.616131077702
 20
14044.0945893448
  0
LWPOLYLINE
  5
2D3
330
1F
100
AcDbEntity
  8
thin dash
 48
0.01
100
AcDbPolyline
 90
        2
 70
     0
 43
0.0
 10
-9237.315853441598
 20
14046.08106367961
 10
-9235.635291782505
 20
14044.10416284577
  0
LWPOLYLINE
  5
2D4
330
1F
100
AcDbEntity
  8
thin dash
 48
0.01
100
AcDbPolyline
 90
        2
 70
     0
 43
0.0
 10
-9237.647163012733
 20
14046.08147697667
 10
-9235.965138785813
 20
14044.10920891611
  0
LWPOLYLINE
  5
2D5
330
1F
100
AcDbEntity
  8
Outline
100
AcDbPolyline
 90
        2
 70
     0
 43
0.0
 10
-9239.39543166359
 20
14046.53579519187
 10
-9239.740831328729
 20
14046.08408875443
  0
LWPOLYLINE
  5
2D6
330
1F
100
AcDbEntity
  8
Outline
100
AcDbPolyline
 90
        2
 70
     0
 43
0.0
 10
-9240.093750654356
 20
14046.08452900891
 10
-9239.749110512741
 20
14046.53527942702
  0
LWPOLYLINE
  5
2D7
330
1F
100
AcDbEntity
  8
Outline
100
AcDbPolyline
 90
        2
 70
     0
 43
0.0
 10
-9237.315853441598
 20
14046.08106367961
 10
-9237.714995838002
 20
14046.53551230296
  0
LWPOLYLINE
  5
2D8
330
1F
100
AcDbEntity
  8
thin dash
 48
0.01
100
AcDbPolyline
 90
        2
 70
     0
 43
0.0
 10
-9238.045650545473
 20
14046.53563631122
 10
-9238.953640581964
 20
14047.57516918628
  0
LWPOLYLINE
  5
2D9
330
1F
100
AcDbEntity
  8
thin dash
 48
0.01
100
AcDbPolyline
 90
        2
 70
     0
 43
0.0
 10
-9236.417200523575
 20
14044.10587332429
 10
-9241.647290963813
 20
14044.09458963801
  0
LWPOLYLINE
  5
2DA
330
1F
100
AcDbEntity
  8
thin dash
 48
0.01
100
AcDbPolyline
 90
        2
 70
     0
 43
0.0
 10
-9236.417200523575
 20
14043.89512982442
 10
-9241.668804528432
 20
14043.88379592887
  0
LWPOLYLINE
  5
2DE
330
1F
100
AcDbEntity
  8
thin dash
100
AcDbPolyline
 90
        2
 70
     0
 43
0.0
 10
-9236.591021802054
 20
14043.68269835075
 10
-9236.801116343434
 20
14043.89512982442
  0
LWPOLYLINE
  5
2DF
330
1F
100
AcDbEntity
  8
thin dash
100
AcDbPolyline
 90
        2
 70
     0
 43
0.0
 10
-9236.436977187322
 20
14043.82568479819
 10
-9236.506419404122
 20
14043.89512982442
  0
LWPOLYLINE
  5
2E0
330
1F
100
AcDbEntity
  8
thin dash
 48
0.01
100
AcDbPolyline
 90
        2
 70
     0
 43
0.0
 10
-9235.483468975244
 20
14041.75515059944
 10
-9235.483468975244
 20
14040.14701896337
  0
LWPOLYLINE
  5
2E3
330
1F
100
AcDbEntity
  8
thin dash
 48
0.01
100
AcDbPolyline
 90
        2
 70
     0
 43
0.0
 10
-9241.780512286448
 20
14040.1491933388
 10
-9235.482955904322
 20
14040.1358806256
  0
LWPOLYLINE
  5
2E4
330
1F
100
AcDbEntity
  8
thin dash
 48
0.01
100
AcDbPolyline
 90
        2
 70
     0
 43
0.0
 10
-9235.810109815746
 20
14041.75647777935
 10
-9235.813987654539
 20
14040.14771655577
  0
LWPOLYLINE
  5
2E6
330
1F
100
AcDbEntity
  8
thin dash
 48
0.01
100
AcDbPolyline
 90
        3
 70
     0
 43
0.0
 10
-9241.780512286448
 20
14039.94289331342
 10
-9235.480362390644
 20
14039.94418041962
 10
-9235.482955904322
 20
14040.1358806256
  0
LWPOLYLINE
  5
2E7
330
1F
100
AcDbEntity
  8
Trace
100
AcDbPolyline
 90
        3
 70
     0
 43
0.0
 10
-9242.365358080943
 20
14039.1220616238
 10
-9235.973507669411
 20
14039.3442166882
 10
-9229.783093994383
 20
14039.55418045496
  0
LWPOLYLINE
  5
2E8
330
1F
100
AcDbEntity
  8
thin dash
 48
0.01
100
AcDbPolyline
 90
        2
 70
     0
 43
0.0
 10
-9241.780512286448
 20
14039.94289331342
 10
-9241.780512286448
 20
14040.1491933388
  0
LWPOLYLINE
  5
2EB
330
1F
100
AcDbEntity
  8
Trace
100
AcDbPolyline
 90
        2
 70
     0
 43
0.0
 10
-9235.294373487702
 20
14043.78417543595
 10
-9234.542181655706
 20
14043.78417543595
  0
LWPOLYLINE
  5
2EC
330
1F
100
AcDbEntity
  8
Trace
100
AcDbPolyline
 90
        3
 70
     0
 43
0.0
 10
-9235.294373487702
 20
14043.78417543595
 10
-9235.294373487702
 20
14043.86701218759
 10
-9234.554930471704
 20
14043.86701218759
  0
LWPOLYLINE
  5
2ED
330
1F
100
AcDbEntity
  8
Trace
100
AcDbPolyline
 90
        2
 70
     0
 43
0.0
 10
-9235.216422016575
 20
14046.78447748476
 10
-9230.590745403016
 20
14046.78420120806
  0
LWPOLYLINE
  5
2EE
330
1F
100
AcDbEntity
  8
Trace
100
AcDbPolyline
 90
        3
 70
     0
 43
0.0
 10
-9235.195011469903
 20
14043.78417543595
 10
-9230.590745403016
 20
14043.78417543595
 10
-9230.590745403016
 20
14046.78420120806
  0
LWPOLYLINE
  5
2EF
330
1F
100
AcDbEntity
  8
Trace
100
AcDbPolyline
 90
        2
 70
     0
 43
0.0
 10
-9230.590745403016
 20
14043.78417543595
 10
-9230.609136612356
 20
14039.52616309963
  0
LWPOLYLINE
  5
2F0
330
1F
100
AcDbEntity
  8
Trace
100
AcDbPolyline
 90
        2
 70
     0
 43
0.0
 10
-9235.216684967559
 20
14049.31653770291
 10
-9235.216123211269
 20
14043.9071616732
  0
LWPOLYLINE
  5
2F1
330
1F
100
AcDbEntity
  8
Trace
100
AcDbPolyline
 90
        5
 70
     0
 43
0.0
 10
-9236.329606422023
 20
14049.31653770291
 10
-9235.143642137336
 20
14049.31653770291
 10
-9235.143642137336
 20
14049.39690055913
 10
-9236.376508971487
 20
14049.39690055913
 10
-9236.376508971487
 20
14049.31653770291
  0
LWPOLYLINE
  5
2F2
330
1F
100
AcDbEntity
  8
Trace
100
AcDbPolyline
 90
        4
 70
     0
 43
0.0
 10
-9241.814634637172
 20
14047.36491165091
 10
-9238.486557103675
 20
14049.91769871842
 10
-9236.35813548152
 20
14048.21584075179
 10
-9236.329606422023
 20
14049.31653770291
  0
LWPOLYLINE
  5
2F3
330
1F
100
AcDbEntity
  8
Trace
100
AcDbPolyline
 90
        4
 70
     0
 43
0.0
 10
-9241.814634637172
 20
14047.36491165091
 10
-9241.814634637172
 20
14040.1491933388
 10
-9242.849992753079
 20
14040.14127449819
 10
-9242.849992753079
 20
14040.14127449819
  0
CIRCLE
  5
316
330
1F
100
AcDbEntity
  8
thin dash
 48
0.01
100
AcDbCircle
 10
-9235.734563423919
 20
14044.06929878892
 30
0.0
 40
0.0158052019597071
  0
LWPOLYLINE
  5
31A
330
1F
100
AcDbEntity
  8
Beams
 48
0.02
100
AcDbPolyline
 90
        2
 70
     0
 43
0.0
 10
-9250.526201414947
 20
14039.04404491363
 10
-9250.526201414947
 20
14044.68063146389
  0
LWPOLYLINE
  5
31B
330
1F
100
AcDbEntity
  8
Beams
 48
0.02
100
AcDbPolyline
 90
        2
 70
     0
 43
0.0
 10
-9248.672789741801
 20
14039.0451677523
 10
-9248.621622287314
 20
14044.3039111334
  0
LWPOLYLINE
  5
31C
330
1F
100
AcDbEntity
  8
Beams
 48
0.02
100
AcDbPolyline
 90
        2
 70
     0
 43
0.0
 10
-9246.664181507258
 20
14039.04756937362
 10
-9246.664181507258
 20
14044.68063146389
  0
LWPOLYLINE
  5
320
330
1F
100
AcDbEntity
  8
Beams
 48
0.02
100
AcDbPolyline
 90
        2
 70
     0
 43
0.0
 10
-9246.615720758427
 20
14045.18230814377
 10
-9246.645695613745
 20
14049.3518908172
  0
LWPOLYLINE
  5
321
330
1F
100
AcDbEntity
  8
Outline
100
AcDbPolyline
 90
        2
 70
     0
 43
0.0
 10
-9249.067531250616
 20
14039.0445045667
 10
-9248.112635665551
 20
14039.04610883933
  0
LWPOLYLINE
  5
322
330
1F
100
AcDbEntity
  8
Outline
100
AcDbPolyline
 90
        2
 70
     0
 43
0.0
 10
-9247.179188681611
 20
14039.04696411685
 10
-9246.211648932156
 20
14039.04785063207
  0
LWPOLYLINE
  5
323
330
1F
100
AcDbEntity
  8
Outline
100
AcDbPolyline
 90
        3
 70
     0
 43
0.0
 10
-9246.543604951259
 20
14045.18495866939
 10
-9244.29515126768
 20
14045.17437656924
 10
-9244.281010595853
 20
14038.59954573549
  0
LWPOLYLINE
  5
324
330
1F
100
AcDbEntity
  8
Outline
100
AcDbPolyline
 90
        2
 70
     0
 43
0.0
 10
-9244.281010595853
 20
14038.59954573549
 10
-9245.297247778678
 20
14038.59889578832
  0
LWPOLYLINE
  5
325
330
1F
100
AcDbEntity
  8
Outline
100
AcDbPolyline
 90
        2
 70
     0
 43
0.0
 10
-9246.211238737258
 20
14038.59719563072
 10
-9247.179197523466
 20
14038.59599193769
  0
LWPOLYLINE
  5
326
330
1F
100
AcDbEntity
  8
Outline
100
AcDbPolyline
 90
        2
 70
     0
 43
0.0
 10
-9248.1122391885
 20
14038.59477483021
 10
-9249.070879621532
 20
14038.59326653869
  0
LWPOLYLINE
  5
327
330
1F
100
AcDbEntity
  8
Outline
100
AcDbPolyline
 90
        3
 70
     0
 43
0.0
 10
-9250.081902651976
 20
14039.04430448432
 10
-9251.008063895577
 20
14039.04345588242
 10
-9251.007647388716
 20
14038.58888169243
  0
LWPOLYLINE
  5
328
330
1F
100
AcDbEntity
  8
Outline
100
AcDbPolyline
 90
        6
 70
     0
 43
0.0
 10
-9251.965123608364
 20
14039.04257896961
 10
-9251.96456086064
 20
14038.59004115906
 10
-9252.891111551432
 20
14038.58953631915
 10
-9252.872324642014
 20
14045.19295533311
 10
-9248.293175175488
 20
14045.18322858548
 10
-9248.296263315722
 20
14044.68063146389
  0
LWPOLYLINE
  5
32C
330
1F
100
AcDbEntity
  8
Outline
100
AcDbPolyline
 90
        4
 70
     0
 43
0.0
 10
-9248.296263315722
 20
14044.68063146389
 10
-9252.411468207837
 20
14044.68063146389
 10
-9252.410822975432
 20
14039.04217059435
 10
-9251.965123608364
 20
14039.04257896959
  0
LWPOLYLINE
  5
32D
330
1F
100
AcDbEntity
  8
Outline
100
AcDbPolyline
 90
        2
 70
     0
 43
0.0
 10
-9247.065148946484
 20
14044.68063146389
 10
-9247.060625433656
 20
14044.90780632484
  0
LWPOLYLINE
  5
32E
330
1F
100
AcDbEntity
  8
Trace
100
AcDbPolyline
 90
        3
 70
     0
 43
0.0
 10
-9244.281977898168
 20
14039.04930153108
 10
-9243.616492050767
 20
14039.04929879347
 10
-9243.610650473202
 20
14038.60095007323
  0
LWPOLYLINE
  5
32F
330
1F
100
AcDbEntity
  8
Trace
100
AcDbPolyline
 90
        2
 70
     0
 43
0.0
 10
-9249.958323599619
 20
14038.59189515249
 10
-9249.15501737893
 20
14038.59310166672
  0
LWPOLYLINE
  5
330
330
1F
100
AcDbEntity
  8
Outline
100
AcDbPolyline
 90
        2
 70
     0
 43
0.0
 10
-9251.007647388716
 20
14038.58888169243
 10
-9250.066892591673
 20
14038.59083332327
  0
LWPOLYLINE
  5
331
330
1F
100
AcDbEntity
  8
Trace
100
AcDbPolyline
 90
        2
 70
     0
 43
0.0
 10
-9249.958323599619
 20
14038.59189515249
 10
-9250.066892591673
 20
14038.59083332327
  0
LWPOLYLINE
  5
332
330
1F
100
AcDbEntity
  8
Trace
100
AcDbPolyline
 90
        2
 70
     0
 43
0.0
 10
-9251.965123608364
 20
14039.04257896961
 10
-9251.008063895577
 20
14039.04345588242
  0
LWPOLYLINE
  5
333
330
1F
100
AcDbEntity
  8
Trace
100
AcDbPolyline
 90
        2
 70
     0
 43
0.0
 10
-9248.112635569405
 20
14039.04599938871
 10
-9247.179188700885
 20
14039.04598108735
  0
LWPOLYLINE
  5
334
330
1F
100
AcDbEntity
  8
Trace
100
AcDbPolyline
 90
        2
 70
     0
 43
0.0
 10
-9246.211648932156
 20
14039.04785063207
 10
-9245.297656814997
 20
14039.0486880839
  0
LWPOLYLINE
  5
335
330
1F
100
AcDbEntity
  8
Trace
100
AcDbPolyline
 90
        2
 70
     0
 43
0.0
 10
-9246.211239035266
 20
14038.59752303229
 10
-9245.297247778678
 20
14038.59889578832
  0
LWPOLYLINE
  5
336
330
1F
100
AcDbEntity
  8
Trace
100
AcDbPolyline
 90
        2
 70
     0
 43
0.0
 10
-9248.112239094526
 20
14038.59466785258
 10
-9247.179197521951
 20
14038.59606922096
  0
LWPOLYLINE
  5
337
330
1F
100
AcDbEntity
  8
Trace
100
AcDbPolyline
 90
        2
 70
     0
 43
0.0
 10
-9249.15501737893
 20
14039.0451537496
 10
-9249.067531250616
 20
14039.0445045667
  0
LWPOLYLINE
  5
338
330
1F
100
AcDbEntity
  8
Trace
100
AcDbPolyline
 90
        2
 70
     0
 43
0.0
 10
-9249.15501737893
 20
14038.59310166672
 10
-9249.070879621532
 20
14038.59326653869
  0
LWPOLYLINE
  5
33C
330
1F
100
AcDbEntity
  8
thin dash
 48
0.01
100
AcDbPolyline
 90
        4
 70
     0
 43
0.0
 10
-9245.572858102468
 20
14049.09607839152
 10
-9245.371139891268
 20
14049.33956156062
 10
-9244.941611303946
 20
14048.95928986745
 10
-9245.161037739691
 20
14048.71939522366
  0
LWPOLYLINE
  5
340
330
1F
100
AcDbEntity
  8
Recon
100
AcDbPolyline
 90
        2
 70
     0
 43
0.0
 10
-9249.677466635484
 20
14038.7317782071
 10
-9249.69171200262
 20
14039.16214710926
  0
LWPOLYLINE
  5
341
330
1F
100
AcDbEntity
  8
Recon
100
AcDbPolyline
 90
        2
 70
     0
 43
0.0
 10
-9248.732195920805
 20
14038.73408746145
 10
-9248.729018133904
 20
14039.16233699837
  0
LWPOLYLINE
  5
342
330
1F
100
AcDbEntity
  8
Recon
100
AcDbPolyline
 90
        3
 70
     0
 43
0.0
 10
-9246.824354888785
 20
14044.72693064269
 10
-9246.341608900928
 20
14044.74216827915
 10
-9246.333674209363
 20
14044.98996335678
  0
LWPOLYLINE
  5
343
330
1F
100
AcDbEntity
  8
Trace
100
AcDbPolyline
 90
        2
 70
     0
 43
0.0
 10
-9246.649386894089
 20
14045.18545652048
 10
-9246.543604951259
 20
14045.18495866939
  0
HATCH
  5
3DA
330
1F
100
AcDbEntity
  8
Period 1
100
AcDbHatch
 10
0.0
 20
0.0
 30
0.0
210
0.0
220
0.0
230
1.0
  2
SOLID
 70
     1
 71
     0
 91
        2
 92
        7
 72
     0
 73
     1
 93
       14
 10
-9244.29515126768
 20
14045.17437656924
 10
-9246.543604951259
 20
14045.18495866939
 10
-9246.551965578104
 20
14044.92386191962
 10
-9247.060625433656
 20
14044.90780632484
 10
-9247.065148946484
 20
14044.68063146389
 10
-9246.15142593336
 20
14044.68063146389
 10
-9246.157906261579
 20
14045.01255632798
 10
-9245.205301431028
 20
14045.01255632798
 10
-9245.205301431028
 20
14044.68063146389
 10
-9244.807299509504
 20
14044.68063146389
 10
-9244.767147793941
 20
14039.04917416662
 10
-9245.297656814997
 20
14039.0486880839
 10
-9245.297247778678
 20
14038.59889578832
 10
-9244.281010595853
 20
14038.59954573549
 97
        0
 92
        7
 72
     0
 73
     1
 93
        8
 10
-9248.293175175488
 20
14045.18322858548
 10
-9252.872324642014
 20
14045.19295533311
 10
-9252.891111551432
 20
14038.58953631915
 10
-9251.964708967276
 20
14038.59004107837
 10
-9251.965123608364
 20
14039.04257896959
 10
-9252.410822975432
 20
14039.04217059435
 10
-9252.411468207837
 20
14044.68063146389
 10
-9248.296263315722
 20
14044.68063146389
 97
        0
 75
     0
 76
     1
 47
0.0251425375890072
 98
        2
 10
-9244.451778808778
 20
14041.96921123349
 10
-9249.804957755692
 20
14045.04230555131
450
        0
451
        0
460
0.0
461
0.0
452
        1
462
1.0
453
        2
463
0.0
 63
     5
421
      255
463
1.0
 63
     7
421
 16777215
470
LINEAR
  0
HATCH
  5
3EB
330
1F
100
AcDbEntity
  8
Period 1
100
AcDbHatch
 10
0.0
 20
0.0
 30
0.0
210
0.0
220
0.0
230
1.0
  2
SOLID
 70
     1
 71
     0
 91
        3
 92
        7
 72
     0
 73
     1
 93
        4
 10
-9248.112635665551
 20
14039.04610883933
 10
-9249.067531250616
 20
14039.0445045667
 10
-9249.070879621532
 20
14038.59326653869
 10
-9248.1122391885
 20
14038.59477483021
 97
        0
 92
        7
 72
     0
 73
     1
 93
        4
 10
-9246.211648932156
 20
14039.04785063207
 10
-9247.179188681611
 20
14039.04696411685
 10
-9247.179197523466
 20
14038.59599193769
 10
-9246.211238737258
 20
14038.59719563072
 97
        0
 92
        7
 72
     0
 73
     1
 93
        4
 10
-9250.081902651976
 20
14039.04430448432
 10
-9251.008063895577
 20
14039.04345588242
 10
-9251.007647388716
 20
14038.58888169243
 10
-9250.066892591673
 20
14038.59083332327
 97
        0
 75
     0
 76
     1
 47
0.0188585402427463
 98
        3
 10
-9248.643462006937
 20
14038.87691774597
 10
-9246.67694277968
 20
14038.79144484424
 10
-9250.485616160124
 20
14038.76813408679
450
        0
451
        0
460
0.0
461
0.0
452
        1
462
1.0
453
        2
463
0.0
 63
     5
421
      255
463
1.0
 63
     7
421
 16777215
470
LINEAR
  0
LWPOLYLINE
  5
3EC
330
1F
100
AcDbEntity
  8
Outline
100
AcDbPolyline
 90
        5
 70
     0
 43
0.0
 10
-9242.989734375361
 20
14036.35926485152
 10
-9242.989734375361
 20
14035.72705677313
 10
-9241.725318218582
 20
14035.72705677313
 10
-9241.725318218582
 20
14036.35926485152
 10
-9242.989734375361
 20
14036.35926485152
  0
LWPOLYLINE
  5
3F5
330
1F
100
AcDbEntity
  8
Trace
100
AcDbPolyline
 90
        5
 70
     0
 43
0.0
 10
-9238.339122529069
 20
14036.33371737533
 10
-9238.339122529069
 20
14035.70150929694
 10
-9237.074706372291
 20
14035.70150929694
 10
-9237.074706372291
 20
14036.33371737533
 10
-9238.339122529069
 20
14036.33371737533
  0
LWPOLYLINE
  5
3F6
330
1F
100
AcDbEntity
  8
Trace
100
AcDbPolyline
 90
        5
 70
     0
 43
0.0
 10
-9233.983937556436
 20
14036.35238745181
 10
-9233.983937556436
 20
14035.72017937342
 10
-9232.719521399657
 20
14035.72017937342
 10
-9232.719521399657
 20
14036.35238745181
 10
-9233.983937556436
 20
14036.35238745181
  0
HATCH
  5
3FF
330
1F
100
AcDbEntity
  8
Period 1
100
AcDbHatch
 10
0.0
 20
0.0
 30
0.0
210
0.0
220
0.0
230
1.0
  2
SOLID
 70
     1
 71
     0
 91
        1
 92
        7
 72
     0
 73
     1
 93
        4
 10
-9241.725318218582
 20
14036.35926485152
 10
-9242.989734375361
 20
14036.35926485152
 10
-9242.989734375361
 20
14035.72705677313
 10
-9241.725318218582
 20
14035.72705677313
 97
        0
 75
     0
 76
     1
 47
0.0299904300625572
 98
        1
 10
-9242.435258726406
 20
14036.24131944138
450
        0
451
        0
460
0.0
461
0.0
452
        1
462
1.0
453
        2
463
0.0
 63
     5
421
      255
463
1.0
 63
     7
421
 16777215
470
LINEAR
  0
LWPOLYLINE
  5
42B
330
1F
100
AcDbEntity
  8
Trace
100
AcDbPolyline
 90
        5
 70
     0
 43
0.0
 10
-9227.20960321573
 20
14051.16410909604
 10
-9227.20960321573
 20
14030.16410909604
 10
-9256.90960321573
 20
14030.16410909604
 10
-9256.90960321573
 20
14051.16410909604
 10
-9227.20960321573
 20
14051.16410909604
  0
MTEXT
  5
448
330
1F
100
AcDbEntity
  8
Lettering
100
AcDbMText
 10
-9253.434414147793
 20
14034.08225716084
 30
0.0
 40
0.6
 41
27.89866666666667
 71
     1
 72
     5
  1
{\fArial|b0|i0|c0|p34;Well Street, No.1,Holywell \H0.6667x; NPRN36300, \P\H0.75x;SJ1852075980, Recorded, Geoff Ward, 18/10/2008, Measurements based on architect's drawings, and  site notes. \P1: 100 scale at A4, (Autocad plot scale 10:1).}
  7
ROMANS
 73
     1
 44
1.0
  0
IMAGE
  5
449
330
1F
100
AcDbEntity
  8
Lettering
 92
      140
310
8C00000001000000840000000600000005000000DCFCB8BEAF07C2C0115FB6746867CB400000000000000000DCFCB8BEAF07C2C019C7BDF0A167CB400000000000000000D7767472FC06C2C019C7BDF0A167CB400000000000000000D7767472FC06C2C0115FB6746867CB400000000000000000DCFCB8BEAF07C2C0115FB6
310
746867CB400000000000000000
100
AcDbRasterImage
 90
        0
 10
-9231.3730078921
 20
14030.81606177942
 30
0.0
 11
0.0001747461333055
 21
0.0
 31
0.0
 12
0.0
 22
0.0001747461333055
 32
0.0
 13
8016.0
 23
2570.0
340
443
 70
     7
280
     0
281
    50
282
    50
283
     0
360
44A
 71
     1
 91
        2
 14
-0.5
 24
-0.5
 14
8015.500000000001
 24
2569.5
  0
IMAGE
  5
44B
330
1F
100
AcDbEntity
  8
Lettering
 92
      140
310
8C000000010000008400000006000000050000009626CF2C3408C2C0AC94A3976A67CB4000000000000000009626CF2C3408C2C0AA22FF15D867CB40000000000000000093E3AC86DA07C2C0AA22FF15D867CB40000000000000000093E3AC86DA07C2C0AC94A3976A67CB4000000000000000009626CF2C3408C2C0AC94A3
310
976A67CB400000000000000000
100
AcDbRasterImage
 90
        0
 10
-9232.407617467728
 20
14030.83275265464
 30
0.0
 11
0.0001699957529827
 21
0.0
 31
0.0
 12
0.0
 22
0.0001699957529827
 32
0.0
 13
4120.0
 23
5032.0
340
444
 70
     7
280
     0
281
    50
282
    50
283
     0
360
44C
 71
     1
 91
        2
 14
-0.5
 24
-0.5
 14
4119.5
 24
5031.5
  0
MTEXT
  5
459
330
1F
100
AcDbEntity
  8
text
100
AcDbMText
 10
-9253.413441771488
 20
14031.50211979108
 30
1.656524041045951
 40
0.2252071959125897
 41
1320.518004482764
 71
     1
 72
     5
  1
{\fArial|b0|i0|c0|p34;\H0.8333x;Crown Copyright: Royal Commission on Ancient & Historical Monuments of Wales, 2008.^JHawlfraint y Goron: Comisiwn Brenhinol Henebion Cymru, 2008.}
 73
     1
 44
1.0
  0
MTEXT
  5
468
330
1F
100
AcDbEntity
  8
Lettering
100
AcDbMText
 10
-9236.089907044821
 20
14038.13346662281
 30
0.0
 40
0.3000000000000687
 41
11.00909090909343
 71
     1
 72
     5
  1
{\fArial|b0|i0|c0|p34;      0      metres                         5}
  7
ROMANS
 73
     1
 44
1.0
  0
LWPOLYLINE
  5
469
330
1F
100
AcDbEntity
  8
Lettering
100
AcDbPolyline
 90
        2
 70
   128
 43
0.0
 10
-9235.188260875863
 20
14037.55443009462
 10
-9230.188260875864
 20
14037.55443009462
  0
LWPOLYLINE
  5
46A
330
1F
100
AcDbEntity
  8
Lettering
100
AcDbPolyline
 90
        2
 70
   128
 43
0.0
 10
-9230.188260875864
 20
14037.55443009462
 10
-9230.188260875864
 20
14037.65443009462
  0
LWPOLYLINE
  5
46B
330
1F
100
AcDbEntity
  8
Lettering
100
AcDbPolyline
 90
        2
 70
   128
 43
0.0
 10
-9231.188260875859
 20
14037.55443009462
 10
-9231.188260875859
 20
14037.65443009462
  0
LWPOLYLINE
  5
46C
330
1F
100
AcDbEntity
  8
Lettering
100
AcDbPolyline
 90
        2
 70
   128
 43
0.0
 10
-9232.188260875863
 20
14037.55443009462
 10
-9232.188260875863
 20
14037.65443009462
  0
LWPOLYLINE
  5
46D
330
1F
100
AcDbEntity
  8
Lettering
100
AcDbPolyline
 90
        2
 70
   128
 43
0.0
 10
-9233.188260875861
 20
14037.55443009462
 10
-9233.188260875861
 20
14037.65443009462
  0
LWPOLYLINE
  5
46E
330
1F
100
AcDbEntity
  8
Lettering
100
AcDbPolyline
 90
        2
 70
   128
 43
0.0
 10
-9234.188260875862
 20
14037.55443009462
 10
-9234.188260875862
 20
14037.65443009462
  0
LWPOLYLINE
  5
46F
330
1F
100
AcDbEntity
  8
Lettering
100
AcDbPolyline
 90
        2
 70
   128
 43
0.0
 10
-9235.188260875863
 20
14037.55443009462
 10
-9235.188260875863
 20
14037.65443009462
  0
MTEXT
  5
47A
330
1F
100
AcDbEntity
  8
Lettering
100
AcDbMText
 10
-9241.689573474829
 20
14038.84172333759
 30
0.0
 40
0.210736026129428
 41
9.311372240895183
 71
     1
 72
     5
  1
{\fArial|b0|i0|c0|p34;\H1.5x;North elevation,\H0.8333x; showing line of\Pformer timber-frame building.\PDashed line = reconstructed.}
  7
ROMANS
 73
     1
 44
1.0
  0
MTEXT
  5
48D
330
1F
100
AcDbEntity
  8
Lettering
100
AcDbMText
 10
-9241.810905375634
 20
14049.28513253137
 30
0.0
 40
0.3258145990591684
 41
1.723553614499209
 71
     1
 72
     5
  1
{\fArial|b0|i0|c0|p34;N}
  7
ROMANS
 11
-0.137830550387308
 21
0.9904558240426132
 31
0.0
 73
     1
 44
1.0
  0
LWPOLYLINE
  5
48E
330
1F
100
AcDbEntity
  8
Lettering
100
AcDbPolyline
 90
        2
 70
   128
 43
0.0
 10
-9242.784974108834
 20
14049.25542428505
 10
-9242.740066903328
 20
14048.93271931786
  0
LWPOLYLINE
  5
48F
330
1F
100
AcDbEntity
  8
Lettering
100
AcDbPolyline
 90
        2
 70
   128
 43
0.0
 10
-9242.80821551604
 20
14049.416665177
 10
-9242.830669118795
 20
14049.57801766059
  0
LWPOLYLINE
  5
490
330
1F
100
AcDbEntity
  8
Lettering
100
AcDbPolyline
 90
        2
 70
   128
 43
0.0
 10
-9242.785761913285
 20
14049.25531269339
 10
-9242.80821551604
 20
14049.416665177
  0
HATCH
  5
491
330
1F
100
AcDbEntity
  8
Lettering
100
AcDbHatch
 10
0.0
 20
0.0
 30
0.0
210
0.0
220
0.0
230
1.0
  2
SOLID
 70
     1
 71
     0
 91
        2
 92
        7
 72
     0
 73
     1
 93
        3
 10
-9242.301983441652
 20
14049.32464301278
 10
-9242.284020559448
 20
14049.19556102591
 10
-9241.979278474452
 20
14049.36955021829
 97
        0
 92
        7
 72
     0
 73
     1
 93
        3
 10
-9242.319946323863
 20
14049.45372499966
 10
-9242.301983441652
 20
14049.32464301278
 10
-9241.979278474452
 20
14049.36955021829
 97
        0
 75
     0
 76
     1
 47
0.0159052570220709
 98
        2
 10
-9242.230910241193
 20
14049.2899125526
 10
-9242.227009210008
 20
14049.35587501723
450
        0
451
        0
460
0.0
461
0.0
452
        1
462
1.0
453
        2
463
0.0
 63
     5
421
      255
463
1.0
 63
     7
421
 16777215
470
LINEAR
  0
LWPOLYLINE
  5
492
330
1F
100
AcDbEntity
  8
Lettering
100
AcDbPolyline
 90
        2
 70
   128
 43
0.0
 10
-9242.301983441652
 20
14049.32464301278
 10
-9242.284020559448
 20
14049.19556102591
  0
LWPOLYLINE
  5
493
330
1F
100
AcDbEntity
  8
Lettering
100
AcDbPolyline
 90
        2
 70
   128
 43
0.0
 10
-9242.301983441652
 20
14049.32464301278
 10
-9242.319946323863
 20
14049.45372499966
  0
LWPOLYLINE
  5
494
330
1F
100
AcDbEntity
  8
Lettering
100
AcDbPolyline
 90
        2
 70
   128
 43
0.0
 10
-9242.301983441652
 20
14049.32464301278
 10
-9242.319946323863
 20
14049.45372499966
  0
LWPOLYLINE
  5
495
330
1F
100
AcDbEntity
  8
Lettering
100
AcDbPolyline
 90
        3
 70
   128
 43
0.0
 10
-9242.284020559448
 20
14049.19556102591
 10
-9241.979278474452
 20
14049.36955021829
 10
-9242.319946323863
 20
14049.45372499966
  0
LWPOLYLINE
  5
496
330
1F
100
AcDbEntity
  8
Lettering
100
AcDbPolyline
 90
        2
 70
   128
 43
0.0
 10
-9242.301983441652
 20
14049.32464301278
 10
-9242.284020559448
 20
14049.19556102591
  0
LWPOLYLINE
  5
497
330
1F
100
AcDbEntity
  8
Lettering
100
AcDbPolyline
 90
        3
 70
   128
 43
0.0
 10
-9241.979278474452
 20
14049.36955021829
 10
-9242.301983441652
 20
14049.32464301278
 10
-9242.319946323863
 20
14049.45372499966
  0
LWPOLYLINE
  5
498
330
1F
100
AcDbEntity
  8
Lettering
100
AcDbPolyline
 90
        2
 70
   128
 43
0.0
 10
-9243.68986196114
 20
14049.13212758672
 10
-9241.979278474452
 20
14049.36955021829
  0
MTEXT
  5
499
330
1F
100
AcDbEntity
  8
Lettering
100
AcDbMText
 10
-9241.488646190486
 20
14036.1596662761
 30
0.0
 40
0.263420032661785
 41
9.311372240895183
 71
     1
 72
     5
  1
{\fArial|b0|i0|c0|p34;\H1.2x;Mid C18th }
  7
ROMANS
 73
     1
 44
1.0
  0
LWPOLYLINE
  5
4A4
330
1F
100
AcDbEntity
  8
Lettering
100
AcDbPolyline
 90
        2
 70
   128
 43
0.0
 10
-9253.178340983906
 20
14047.70567611785
 10
-9253.178340983906
 20
14047.54700480405
  0
LWPOLYLINE
  5
4A5
330
1F
100
AcDbEntity
  8
Lettering
100
AcDbPolyline
 90
        4
 70
   128
 43
0.0
 10
-9253.178340983906
 20
14047.41055888966
 10
-9253.178340983906
 20
14047.252329507
 10
-9252.99700233957
 20
14047.47900281242
 10
-9253.178340983906
 20
14047.70567611785
  0
LWPOLYLINE
  5
4A6
330
1F
100
AcDbEntity
  8
Lettering
100
AcDbPolyline
 90
        5
 70
   128
 43
0.0
 10
-9253.178340983906
 20
14047.54700480405
 10
-9253.178340983906
 20
14047.54700480405
 10
-9253.269009229063
 20
14047.54656287291
 10
-9253.269009229063
 20
14047.41055888966
 10
-9253.178340983906
 20
14047.41055888966
  0
LWPOLYLINE
  5
4A7
330
1F
100
AcDbEntity
  8
Lettering
100
AcDbPolyline
 90
        2
 70
   128
 43
0.0
 10
-9249.785596377646
 20
14038.30308275021
 10
-9249.626925063855
 20
14038.30308275021
  0
LWPOLYLINE
  5
4A8
330
1F
100
AcDbEntity
  8
Lettering
100
AcDbPolyline
 90
        4
 70
   128
 43
0.0
 10
-9249.490479149461
 20
14038.30308275021
 10
-9249.332249766808
 20
14038.30308275021
 10
-9249.558923072227
 20
14038.48442139454
 10
-9249.785596377646
 20
14038.30308275021
  0
LWPOLYLINE
  5
4A9
330
1F
100
AcDbEntity
  8
Lettering
100
AcDbPolyline
 90
        5
 70
   128
 43
0.0
 10
-9249.626925063855
 20
14038.30308275021
 10
-9249.626925063855
 20
14038.30308275021
 10
-9249.626483132713
 20
14038.21241450505
 10
-9249.490479149461
 20
14038.21241450505
 10
-9249.490479149461
 20
14038.30308275021
  0
MTEXT
  5
4AA
330
1F
100
AcDbEntity
  8
Lettering
100
AcDbMText
 10
-9237.020202254504
 20
14036.18700875109
 30
0.0
 40
0.263420032661785
 41
9.311372240895183
 71
     1
 72
     5
  1
{\fArial|b0|i0|c0|p34;\H1.2x; Early C19th }
  7
ROMANS
 73
     1
 44
1.0
  0
MTEXT
  5
4AB
330
1F
100
AcDbEntity
  8
Lettering
100
AcDbMText
 10
-9232.436568434669
 20
14036.20836958488
 30
0.0
 40
0.263420032661785
 41
9.311372240895183
 71
     1
 72
     5
  1
{\fArial|b0|i0|c0|p34;\H1.2x;Later}
  7
ROMANS
 73
     1
 44
1.0
  0
HATCH
  5
4D5
330
1F
100
AcDbEntity
  8
Period 2
100
AcDbHatch
 10
0.0
 20
0.0
 30
0.0
210
0.0
220
0.0
230
1.0
  2
SOLID
 70
     1
 71
     0
 91
        4
 92
        7
 72
     0
 73
     1
 93
        4
 10
-9252.371015430831
 20
14047.0305134634
 10
-9252.883308563957
 20
14047.03059564583
 10
-9252.872324642014
 20
14045.19295533311
 10
-9252.333796136914
 20
14045.19181142398
 97
        0
 92
        7
 72
     0
 73
     1
 93
       15
 10
-9252.371013228501
 20
14048.9076427459
 10
-9251.96248146614
 20
14049.37451332787
 10
-9245.85210131242
 20
14049.35149610865
 10
-9245.572858102468
 20
14049.09607839152
 10
-9245.371139891268
 20
14049.33956156062
 10
-9244.941611303946
 20
14048.95928986745
 10
-9245.161037739691
 20
14048.71939522366
 10
-9244.961145926742
 20
14048.53655851102
 10
-9244.915198728671
 20
14047.70914773055
 10
-9244.441952464974
 20
14047.73626565635
 10
-9244.560041926311
 20
14049.79709423185
 10
-9252.38026307756
 20
14049.82025308596
 10
-9252.896954673936
 20
14049.31362733029
 10
-9252.888303110749
 20
14047.86619704419
 10
-9252.371014450416
 20
14047.86614471511
 97
        0
 92
        7
 72
     0
 73
     1
 93
        4
 10
-9244.391065554555
 20
14046.84821690142
 10
-9244.865879237307
 20
14046.82100915949
 10
-9244.774564881053
 20
14045.17663287672
 10
-9244.29515126768
 20
14045.17437656924
 97
        0
 92
        7
 72
     0
 73
     1
 93
        4
 10
-9237.074706372291
 20
14036.33371737533
 10
-9238.339122529069
 20
14036.33371737533
 10
-9238.339122529069
 20
14035.70150929694
 10
-9237.074706372291
 20
14035.70150929694
 97
        0
 75
     0
 76
     1
 47
0.0414923647227544
 98
        4
 10
-9252.621194948835
 20
14045.77307912671
 10
-9252.489967665988
 20
14048.83345679315
 10
-9244.616359007633
 20
14046.12283674613
 10
-9237.705080359324
 20
14035.93615086796
450
        0
451
        0
460
0.0
461
0.0
452
        1
462
1.0
453
        2
463
0.0
 63
     5
421
      255
463
1.0
 63
     7
421
 16777215
470
LINEAR
  0
MTEXT
  5
4D6
330
1F
100
AcDbEntity
  8
Lettering
100
AcDbMText
 10
-9255.457599323714
 20
14039.96737572246
 30
0.0
 40
0.210736026129428
 41
9.311372240895183
 71
     1
 72
     5
  1
{\fArial|b0|i0|c0|p34;\H1.25x;Line of building}
  7
ROMANS
 11
0.0513920838876821
 21
0.9986785537467406
 31
0.0
 73
     1
 44
1.0
  0
MTEXT
  5
4D9
330
1F
100
AcDbEntity
  8
Lettering
100
AcDbMText
 10
-9253.836345688107
 20
14042.6137093134
 30
0.0
 40
0.210736026129428
 41
9.311372240895183
 71
     1
 72
     5
  1
{\fArial|b0|i0|c0|p34;\H1.25x;External passage}
  7
ROMANS
 11
0.043974605543017
 21
0.9990326491498343
 31
0.0
 73
     1
 44
1.0
  0
MTEXT
  5
4DA
330
1F
100
AcDbEntity
  8
Lettering
100
AcDbMText
 10
-9252.297370080489
 20
14049.00584229601
 30
0.0
 40
0.210736026129428
 41
9.311372240895183
 71
     1
 72
     5
  1
{\fArial|b0|i0|c0|p34;     Site of \P      stair}
  7
ROMANS
 73
     1
 44
1.0
  0
MTEXT
  5
4DD
330
1F
100
AcDbEntity
  8
Lettering
100
AcDbMText
 10
-9255.600184710289
 20
14035.99135736454
 30
0.0
 40
0.263420032661785
 41
9.311372240895183
 71
     1
 72
     5
  1
{\fArial|b0|i0|c0|p34;\H1.2x;Ground-plan}
  7
ROMANS
 73
     1
 44
1.0
  0
MTEXT
  5
4DE
330
1F
100
AcDbEntity
  8
Lettering
100
AcDbMText
 10
-9246.538245650537
 20
14048.60190173123
 30
0.0
 40
0.210736026129428
 41
9.311372240895183
 71
     1
 72
     5
  1
{\fArial|b0|i0|c0|p34;     Blocked \P     fireplace}
  7
ROMANS
 73
     1
 44
1.0
  0
MTEXT
  5
4E0
330
1F
100
AcDbEntity
  8
Lettering
100
AcDbMText
 10
-9246.63928262321
 20
14044.8317914814
 30
0.0
 40
0.210736026129428
 41
9.311372240895183
 71
     1
 72
     5
  1
{\fArial|b0|i0|c0|p34;     \P     Fireplace}
  7
ROMANS
 73
     1
 44
1.0
  0
MTEXT
  5
4E1
330
1F
100
AcDbEntity
  8
Lettering
100
AcDbMText
 10
-9249.080919605813
 20
14041.1907144221
 30
0.0
 40
0.210736026129428
 41
9.311372240895183
 71
     1
 72
     5
  1
{\fArial|b0|i0|c0|p34;(Line of partition ?)}
  7
ROMANS
 11
0.0000000000000001
 21
1.0
 31
0.0
 73
     1
 44
1.0
  0
HATCH
  5
4E9
330
1F
100
AcDbEntity
  8
0
100
AcDbHatch
 10
0.0
 20
0.0
 30
0.0
210
0.0
220
0.0
230
1.0
  2
SOLID
 70
     1
 71
     0
 91
        1
 92
        7
 72
     0
 73
     1
 93
        7
 10
-9249.558923072227
 20
14038.48442139454
 10
-9249.785596377646
 20
14038.30308275021
 10
-9249.626925063855
 20
14038.30308275021
 10
-9249.626483132713
 20
14038.21241450505
 10
-9249.490479149461
 20
14038.21241450505
 10
-9249.490479149461
 20
14038.30308275021
 10
-9249.332249766808
 20
14038.30308275021
 97
        0
 75
     0
 76
     1
 47
0.0124214897105027
 98
        1
 10
-9249.557824107373
 20
14038.37849345318
450
        0
451
        0
460
0.0
461
0.0
452
        1
462
1.0
453
        2
463
0.0
 63
     5
421
      255
463
1.0
 63
     7
421
 16777215
470
LINEAR
  0
MTEXT
  5
4EA
330
1F
100
AcDbEntity
  8
Lettering
100
AcDbMText
 10
-9237.272967350552
 20
14046.56499878607
 30
0.0
 40
0.2
 41
8.837000879172322
 71
     1
 72
     5
  1
{\fArial|b0|i0|c0|p34;     \P    Line of floor}
  7
ROMANS
 73
     1
 44
1.0
  0
LWPOLYLINE
  5
4ED
330
1F
100
AcDbEntity
  8
Trace
100
AcDbPolyline
 90
        2
 70
     0
 43
0.0
 10
-9244.262219693036
 20
14038.6011812375
 10
-9243.610650473202
 20
14038.60095007323
  0
MTEXT
  5
4EE
330
1F
100
AcDbEntity
  8
Lettering
100
AcDbMText
 10
-9244.196018372775
 20
14038.79136920865
 30
0.0
 40
0.2
 41
8.837000879172322
 71
     1
 72
     5
  1
{\fArial|b0|i0|c0|p34;     \P   Buttress}
  7
ROMANS
 73
     1
 44
1.0
  0
MTEXT
  5
4EF
330
1F
100
AcDbEntity
  8
Lettering
100
AcDbMText
 10
-9248.009020883143
 20
14036.83737452098
 30
0.0
 40
0.2
 41
8.837000879172322
 71
     1
 72
     5
  1
{\fArial|b0|i0|c0|p34;     \P   Wall with railings}
  7
ROMANS
 73
     1
 44
1.0
  0
HATCH
  5
4F3
330
1F
100
AcDbEntity
  8
Lettering
100
AcDbHatch
 10
0.0
 20
0.0
 30
0.0
210
0.0
220
0.0
230
1.0
  2
SOLID
 70
     1
 71
     0
 91
        2
 92
        7
 72
     0
 73
     1
 93
        3
 10
-9249.556978592712
 20
14036.6098893444
 10
-9249.479160046222
 20
14036.61012972298
 10
-9249.557579539148
 20
14036.80443571063
 97
        0
 92
        7
 72
     0
 73
     1
 93
        3
 10
-9249.634797139201
 20
14036.60964896583
 10
-9249.556978592712
 20
14036.6098893444
 10
-9249.557579539148
 20
14036.80443571063
 97
        0
 75
     0
 76
     1
 47
0.0159052570220709
 98
        2
 10
-9249.530710406588
 20
14036.64914586193
 10
-9249.569424022643
 20
14036.65676214335
450
        0
451
        0
460
0.0
461
0.0
452
        1
462
1.0
453
        2
463
0.0
 63
     5
421
      255
463
1.0
 63
     7
421
 16777215
470
LINEAR
  0
LWPOLYLINE
  5
4F4
330
1F
100
AcDbEntity
  8
Lettering
100
AcDbPolyline
 90
        2
 70
   128
 43
0.0
 10
-9249.556978592712
 20
14036.6098893444
 10
-9249.479160046222
 20
14036.61012972298
  0
LWPOLYLINE
  5
4F5
330
1F
100
AcDbEntity
  8
Lettering
100
AcDbPolyline
 90
        2
 70
   128
 43
0.0
 10
-9249.556978592712
 20
14036.6098893444
 10
-9249.634797139201
 20
14036.60964896583
  0
LWPOLYLINE
  5
4F6
330
1F
100
AcDbEntity
  8
Lettering
100
AcDbPolyline
 90
        2
 70
   128
 43
0.0
 10
-9249.556978592712
 20
14036.6098893444
 10
-9249.634797139201
 20
14036.60964896583
  0
LWPOLYLINE
  5
4F7
330
1F
100
AcDbEntity
  8
Lettering
100
AcDbPolyline
 90
        3
 70
   128
 43
0.0
 10
-9249.479160046222
 20
14036.61012972298
 10
-9249.557579539148
 20
14036.80443571063
 10
-9249.634797139201
 20
14036.60964896583
  0
LWPOLYLINE
  5
4F8
330
1F
100
AcDbEntity
  8
Lettering
100
AcDbPolyline
 90
        2
 70
   128
 43
0.0
 10
-9249.556978592712
 20
14036.6098893444
 10
-9249.479160046222
 20
14036.61012972298
  0
LWPOLYLINE
  5
4F9
330
1F
100
AcDbEntity
  8
Lettering
100
AcDbPolyline
 90
        3
 70
   128
 43
0.0
 10
-9249.557579539148
 20
14036.80443571063
 10
-9249.556978592712
 20
14036.6098893444
 10
-9249.634797139201
 20
14036.60964896583
  0
LWPOLYLINE
  5
4FC
330
1F
100
AcDbEntity
  8
Outline
100
AcDbPolyline
 90
        2
 70
     0
 43
0.0
 10
-9249.556643409141
 20
14036.79313700683
 10
-9249.552638934623
 20
14035.92300758991
  0
HATCH
  5
501
330
1F
100
AcDbEntity
  8
Period 1
100
AcDbHatch
 10
0.0
 20
0.0
 30
0.0
210
0.0
220
0.0
230
1.0
  2
SOLID
 70
     1
 71
     0
 91
        2
 92
        7
 72
     1
 73
     1
 93
        2
 10
-9250.418598917471
 20
14037.55371726135
 42
1.0
 10
-9250.157290146075
 20
14037.55371726135
 42
1.0
 97
        0
 92
        7
 72
     1
 73
     1
 93
        2
 10
-9248.961050693853
 20
14037.55371726135
 42
1.0
 10
-9248.699741922456
 20
14037.55371726135
 42
1.0
 97
        0
 75
     0
 76
     1
 47
0.0230397952300148
 98
        2
 10
-9250.314286281346
 20
14037.56558088282
 10
-9248.881228429546
 20
14037.58985752139
450
        0
451
        0
460
0.0
461
0.0
452
        1
462
1.0
453
        2
463
0.0
 63
     5
421
      255
463
1.0
 63
     7
421
 16777215
470
LINEAR
  0
LWPOLYLINE
  5
512
330
1F
100
AcDbEntity
  8
Thin line
100
AcDbPolyline
 90
        5
 70
     0
 43
0.0
 10
-9256.294439814221
 20
14050.63237981008
 10
-9227.799005253199
 20
14050.63237981008
 10
-9227.799005253199
 20
14034.66926848278
 10
-9256.294439814221
 20
14034.66926848278
 10
-9256.294439814221
 20
14050.63237981008
  0
ENDSEC
  0
SECTION
  2
OBJECTS
  0
DICTIONARY
  5
C
330
0
100
AcDbDictionary
281
     1
  3
ACAD_COLOR
350
6B
  3
ACAD_GROUP
350
D
  3
ACAD_IMAGE_DICT
350
81
  3
ACAD_IMAGE_VARS
350
82
  3
ACAD_LAYOUT
350
1A
  3
ACAD_MATERIAL
350
6A
  3
ACAD_MLINESTYLE
350
17
  3
ACAD_PLOTSETTINGS
350
19
  3
ACAD_PLOTSTYLENAME
350
E
  3
AcDbVariableDictionary
350
5E
  3
ADE_QUERY_LIBRARY
350
94
  3
ASE_INDEX_DICTIONARY
350
90
1001
ADE
1000
ADE02C004
1000
[Query]
1000
CaseSensitiveMatch=0
1000
SaveCurrQueryInSession=1
1000
MkSelSetWithQryObj=0
1000
ShowBlockAsInsPt=0
1000
CreateAssociativeHatchObjects=0
1000
ReferenceBoundaryForAreaLocation=1
1000
ShowImageAsBoundary=1
1000
DefaultJoinOperator=2
1000
ColorForAdd=red
1000
ColorForRemove=red
1000
BlockLocnForQuery=1
1000
TextLocnForQuery=1
1000
[Save Back]
1000
RedefineBlockDefinitions=1
1000
RedefineLayerDefinitions=1
1000
RedefineTextStyleDefinitions=1
1000
RemoveUnusedGroups=1
1000
EraseSavedBackObjects=1
1000
RemoveLockAfterSave=1
1000
CreateHistoryFileOfChanges=0
1000
CreateBackupFileOfSourceDwg=1
1000
DontAddObjectsToSaveSet=0
1000
MarkObjectsForEditingWithoutPrompting=0
1000
[Coordinate Transformation]
1000
RestoreLastActiveDwgsOnStartup=1
1000
ActivateDwgsOnAttach=1
1000
AdjustSizesAndScalesForChangesInUnits=1
1000
AdjustRotationsForMapDistortions=1
1000
AdjustSizesAndScalesForMapDistortions=1
1000
AdjustElevations=1
1000
AdjustZeroRotationObjects=1
1000
ReconnectDbOnWSOpen=1
1000
NoOfSQLConditionsInHistory=10
  0
DICTIONARY
  5
429
330
1F
100
AcDbDictionary
280
     1
281
     1
  3
ACAD_SORTENTS
360
42A
  0
IMAGEDEF_REACTOR
  5
44A
330
449
100
AcDbRasterImageDefReactor
 90
        2
330
449
  0
IMAGEDEF_REACTOR
  5
44C
330
44B
100
AcDbRasterImageDefReactor
 90
        2
330
44B
  0
DICTIONARY
  5
6B
102
{ACAD_REACTORS
330
C
102
}
330
C
100
AcDbDictionary
281
     1
  0
DICTIONARY
  5
D
102
{ACAD_REACTORS
330
C
102
}
330
C
100
AcDbDictionary
281
     1
  0
DICTIONARY
  5
81
102
{ACAD_REACTORS
330
C
102
}
330
C
100
AcDbDictionary
281
     1
  3
1 well st end elevation
350
89
  3
1 well St plan
350
86
  3
1 wellst Elevation
350
8C
  3
Assembly logo
350
443
  3
RCAHMW logo
350
444
  3
Untitled-3
350
83
  0
RASTERVARIABLES
  5
82
102
{ACAD_REACTORS
330
C
102
}
330
C
100
AcDbRasterVariables
 90
        0
 70
     1
 71
     1
 72
     1
  0
DICTIONARY
  5
1A
102
{ACAD_REACTORS
330
C
102
}
330
C
100
AcDbDictionary
281
     1
  3
Layout1
350
51
  3
Layout2
350
56
  3
Model
350
22
  0
DICTIONARY
  5
6A
102
{ACAD_REACTORS
330
C
102
}
330
C
100
AcDbDictionary
281
     1
  0
DICTIONARY
  5
17
102
{ACAD_REACTORS
330
C
102
}
330
C
100
AcDbDictionary
281
     1
  3
Standard
350
18
  0
DICTIONARY
  5
19
102
{ACAD_REACTORS
330
C
102
}
330
C
100
AcDbDictionary
281
     1
  0
ACDBDICTIONARYWDFLT
  5
E
102
{ACAD_REACTORS
330
C
102
}
330
C
100
AcDbDictionary
281
     1
  3
Normal
350
F
100
AcDbDictionaryWithDefault
340
F
  0
DICTIONARY
  5
5E
102
{ACAD_REACTORS
330
C
102
}
330
C
100
AcDbDictionary
281
     1
  3
DIMASSOC
350
5F
  3
HIDETEXT
350
63
  0
DICTIONARY
  5
94
102
{ACAD_REACTORS
330
C
102
}
330
C
100
AcDbDictionary
281
     1
  3
_CurrQry
350
57E
  0
DICTIONARY
  5
90
102
{ACAD_REACTORS
330
C
102
}
330
C
100
AcDbDictionary
281
     1
  3
ASEBlockHierarchyIndexRecord
350
92
1001
DCO15
1040
1615617191.236
  0
SORTENTSTABLE
  5
42A
102
{ACAD_REACTORS
330
429
102
}
330
429
100
AcDbSortentsTable
330
1F
331
4E0
  5
4E1
331
D0
  5
D6
331
A9
  5
B4
331
2E4
  5
2ED
331
D8
  5
DF
331
491
  5
493
331
1F7
  5
20C
331
4F8
  5
4F9
331
E0
  5
E7
331
2EC
  5
2F2
331
343
  5
3FF
331
499
  5
4A5
331
2BD
  5
2CC
331
246
  5
25A
331
F0
  5
119
331
4A9
  5
4AB
331
B1
  5
B7
331
25E
  5
271
331
B9
  5
C0
331
31C
  5
325
331
3EB
  5
A9
331
26E
  5
274
331
20F
  5
219
331
4D9
  5
4DA
331
C1
  5
C9
331
324
  5
32D
331
2D5
  5
2DE
331
1E0
  5
1FA
331
C9
  5
D0
331
217
  5
232
331
276
  5
27C
331
32C
  5
332
331
46A
  5
46C
331
27E
  5
2B2
331
334
  5
340
331
42B
  5
42F
331
47A
  5
48E
331
4E1
  5
4E9
331
4E9
  5
4EA
331
D1
  5
D7
331
AA
  5
B5
331
D9
  5
E0
331
33C
  5
3EB
331
23F
  5
246
331
4F9
  5
4FC
331
E1
  5
EA
331
2ED
  5
2F3
331
492
  5
494
331
2BE
  5
2CE
331
247
  5
25B
331
44B
  5
468
331
501
  5
A6
331
4AA
  5
4D5
331
B2
  5
B8
331
3EC
  5
421
331
BA
  5
C1
331
25F
  5
272
331
2CE
  5
2D6
331
4DA
  5
4DD
331
C2
  5
CA
331
210
  5
21A
331
26F
  5
275
331
325
  5
32E
331
46B
  5
46D
331
2D6
  5
2DF
331
CA
  5
D1
331
1E1
  5
1FB
331
277
  5
27D
331
32D
  5
333
331
27F
  5
2BA
331
2DE
  5
2E7
331
335
  5
341
331
4EA
  5
4ED
331
DA
  5
E1
331
2E6
  5
2EE
331
493
  5
495
331
240
  5
247
331
2EE
  5
2F7
331
2BF
  5
2CF
331
EA
  5
110
331
248
  5
25C
331
316
  5
322
331
4AB
  5
4D6
331
B3
  5
B9
331
BB
  5
C2
331
209
  5
215
331
3F5
  5
42B
331
C3
  5
CB
331
270
  5
276
331
2CF
  5
2D7
331
326
  5
32F
331
46C
  5
46E
331
278
  5
27E
331
CB
  5
D2
331
1E2
  5
206
331
219
  5
233
331
2D7
  5
2E0
331
32E
  5
334
331
2DF
  5
2E8
331
336
  5
342
331
1EA
  5
209
331
280
  5
2BD
331
4F3
  5
4F4
331
DB
  5
E3
331
2E7
  5
2EF
331
494
  5
496
331
E3
  5
EB
331
1FA
  5
20F
331
241
  5
248
331
2EF
  5
2F8
331
EB
  5
111
331
249
  5
25D
331
4A4
  5
4A6
331
259
  5
25F
331
B4
  5
BA
331
2C0
  5
2D1
331
20A
  5
216
331
1AB
  5
1EA
331
BC
  5
C3
331
3F6
  5
42E
331
271
  5
277
331
C4
  5
CC
331
327
  5
330
331
46D
  5
46F
331
279
  5
27F
331
21A
  5
23D
331
CC
  5
D3
331
2D8
  5
2E3
331
32F
  5
335
331
42E
  5
431
331
337
  5
343
331
281
  5
2BE
331
232
  5
242
331
D4
  5
DA
331
2E0
  5
2EB
331
48D
  5
48F
331
2B1
  5
2C0
331
4F4
  5
4F5
331
DC
  5
E4
331
2E8
  5
2F0
331
495
  5
497
331
1FB
  5
210
331
4FC
  5
501
331
E4
  5
EE
331
242
  5
249
331
2F0
  5
2F9
331
4A5
  5
4A7
331
25A
  5
26D
331
B5
  5
BB
331
8E
  5
B0
331
320
  5
326
331
4D5
  5
8E
331
BD
  5
C4
331
272
  5
278
331
1DC
  5
1F6
331
4DD
  5
4DE
331
C5
  5
CD
331
2D1
  5
2D8
331
328
  5
331
331
3FF
  5
A7
331
27A
  5
280
331
21B
  5
23F
331
CD
  5
D4
331
2D9
  5
2E4
331
330
  5
336
331
46E
  5
477
331
A6
  5
B1
331
338
  5
3DA
331
233
  5
244
331
4ED
  5
4EE
331
D5
  5
DB
331
340
  5
3EC
331
4F5
  5
4F6
331
2B2
  5
2C2
331
48E
  5
490
331
496
  5
498
331
2BA
  5
2CA
331
E5
  5
EF
331
2F1
  5
2FA
331
4A6
  5
4A8
331
25B
  5
26E
331
B6
  5
BC
331
2C2
  5
2D3
331
20C
  5
217
331
4D6
  5
4D9
331
BE
  5
C5
331
2CA
  5
2D4
331
321
  5
327
331
273
  5
279
331
214
  5
21B
331
1DD
  5
1F7
331
4DE
  5
4E0
331
C6
  5
CE
331
46F
  5
479
331
27B
  5
281
331
21C
  5
240
331
CE
  5
D5
331
2DA
  5
2E6
331
331
  5
337
331
A7
  5
B2
331
4EE
  5
4EF
331
341
  5
3F5
331
4F6
  5
4F7
331
DE
  5
E5
331
48F
  5
491
331
497
  5
499
331
2F2
  5
2FB
331
244
  5
24C
331
E6
  5
F0
331
448
  5
44B
331
24C
  5
25E
331
EE
  5
112
331
4A7
  5
4A9
331
25C
  5
26F
331
B7
  5
BD
331
31A
  5
323
331
322
  5
328
331
468
  5
46A
331
274
  5
27A
331
215
  5
21C
331
2D3
  5
2D9
331
27C
  5
284
331
332
  5
338
331
A8
  5
B3
331
284
  5
2BF
331
4EF
  5
4F3
331
D7
  5
DE
331
2E3
  5
2EC
331
490
  5
492
331
1F6
  5
20A
331
4F7
  5
4F8
331
DF
  5
E6
331
23D
  5
245
331
2EB
  5
2F1
331
342
  5
3F6
331
3DA
  5
A8
331
245
  5
259
331
E7
  5
10F
331
2F3
  5
2FC
331
498
  5
4A4
331
449
  5
459
331
EF
  5
115
331
4A8
  5
4AA
331
B0
  5
B6
331
206
  5
214
331
B8
  5
BE
331
25D
  5
270
331
31B
  5
324
331
459
  5
469
331
2CC
  5
2D5
331
26D
  5
273
331
C0
  5
C6
331
323
  5
32C
331
469
  5
46B
331
2D4
  5
2DA
331
275
  5
27B
331
216
  5
21E
331
27D
  5
2B1
331
21E
  5
241
331
333
  5
33C
  0
IMAGEDEF
  5
89
102
{ACAD_REACTORS
330
81
102
}
330
81
100
AcDbRasterImageDef
 90
        0
  1
E:\Share\All\SURVEY BRANCH\Emergency Recording Fieldwork\Ongoing Sites\Holywell\1 well st end elevation.tif
 10
1600.0
 20
2272.0
 11
0.127
 21
0.127
280
     1
281
     5
  0
IMAGEDEF
  5
86
102
{ACAD_REACTORS
330
81
102
}
330
81
100
AcDbRasterImageDef
 90
        0
  1
E:\Share\All\SURVEY BRANCH\Emergency Recording Fieldwork\Ongoing Sites\Holywell\1 well St plan.tif
 10
1600.0
 20
2272.0
 11
0.127
 21
0.127
280
     1
281
     5
  0
IMAGEDEF
  5
8C
102
{ACAD_REACTORS
330
81
330
8D
102
}
330
81
100
AcDbRasterImageDef
 90
        0
  1
E:\Share\All\SURVEY BRANCH\Emergency Recording Fieldwork\Ongoing Sites\Holywell\1 wellst Elevation.tif
 10
1600.0
 20
2272.0
 11
0.127
 21
0.127
280
     1
281
     5
  0
IMAGEDEF
  5
443
102
{ACAD_REACTORS
330
81
330
44A
102
}
330
81
100
AcDbRasterImageDef
 90
        0
  1
E:\Share\All\SURVEY BRANCH\Templates\LOGOS\Assembly logo.tif
 10
8016.0
 20
2570.0
 11
0.0211666666666667
 21
0.0211666666666667
280
     1
281
     5
  0
IMAGEDEF
  5
444
102
{ACAD_REACTORS
330
81
330
44C
102
}
330
81
100
AcDbRasterImageDef
 90
        0
  1
E:\Share\All\SURVEY BRANCH\Templates\LOGOS\RCAHMW logo.tif
 10
4120.0
 20
5032.0
 11
0.0208333333333333
 21
0.0208333333333333
280
     1
281
     2
  0
IMAGEDEF
  5
83
102
{ACAD_REACTORS
330
81
102
}
330
81
100
AcDbRasterImageDef
 90
        0
  1
E:\Share\All\SURVEY BRANCH\Emergency Recording Fieldwork\Ongoing Sites\Holywell\Untitled-3.tif
 10
1600.0
 20
2272.0
 11
0.127
 21
0.127
280
     1
281
     5
  0
LAYOUT
  5
51
102
{ACAD_REACTORS
330
1A
102
}
330
1A
100
AcDbPlotSettings
  1

  2
None
  4

  6

 40
0.0
 41
0.0
 42
0.0
 43
0.0
 44
0.0
 45
0.0
 46
0.0
 47
0.0
 48
0.0
 49
0.0
140
0.0
141
0.0
142
1.0
143
1.0
 70
   688
 72
     0
 73
     0
 74
     5
  7

 75
    16
147
1.0
 76
     0
 77
     2
 78
   300
148
0.0
149
0.0
100
AcDbLayout
  1
Layout1
 70
     1
 71
     1
 10
0.0
 20
0.0
 11
12.0
 21
9.0
 12
0.0
 22
0.0
 32
0.0
 14
0.0
 24
0.0
 34
0.0
 15
0.0
 25
0.0
 35
0.0
146
0.0
 13
0.0
 23
0.0
 33
0.0
 16
1.0
 26
0.0
 36
0.0
 17
0.0
 27
1.0
 37
0.0
 76
     0
330
50
  0
LAYOUT
  5
56
102
{ACAD_REACTORS
330
1A
102
}
330
1A
100
AcDbPlotSettings
  1

  2
None
  4

  6

 40
0.0
 41
0.0
 42
0.0
 43
0.0
 44
0.0
 45
0.0
 46
0.0
 47
0.0
 48
0.0
 49
0.0
140
0.0
141
0.0
142
1.0
143
1.0
 70
   688
 72
     0
 73
     0
 74
     5
  7

 75
    16
147
1.0
 76
     0
 77
     2
 78
   300
148
0.0
149
0.0
100
AcDbLayout
  1
Layout2
 70
     1
 71
     2
 10
0.0
 20
0.0
 11
12.0
 21
9.0
 12
0.0
 22
0.0
 32
0.0
 14
0.0
 24
0.0
 34
0.0
 15
0.0
 25
0.0
 35
0.0
146
0.0
 13
0.0
 23
0.0
 33
0.0
 16
1.0
 26
0.0
 36
0.0
 17
0.0
 27
1.0
 37
0.0
 76
     0
330
55
  0
LAYOUT
  5
22
102
{ACAD_REACTORS
330
1A
102
}
330
1A
100
AcDbPlotSettings
  1

  2
\\IT155\Color LaserJet 2500 3rd floor
  4
A4
  6

 40
4.233333110809326
 41
4.233341693878172
 42
4.233322143554686
 43
4.23333740234375
 44
209.9733276367186
 45
296.9259948730469
 46
-4.25
 47
-4.269999999999998
 48
-9253.197714355115
 49
13998.6802898645
140
-9232.197714355114
141
14028.3802898645
142
10.0
143
1.0
 70
 11940
 72
     1
 73
     0
 74
     4
  7

 75
     0
147
10.0
 76
     0
 77
     2
 78
   300
148
9253.197714355115
149
-13998.6802898645
100
AcDbLayout
  1
Model
 70
     1
 71
     0
 10
0.0
 20
0.0
 11
12.0
 21
9.0
 12
0.0
 22
0.0
 32
0.0
 14
0.0
 24
0.0
 34
0.0
 15
0.0
 25
0.0
 35
0.0
146
0.0
 13
0.0
 23
0.0
 33
0.0
 16
1.0
 26
0.0
 36
0.0
 17
0.0
 27
1.0
 37
0.0
 76
     0
330
1F
  0
MLINESTYLE
  5
18
102
{ACAD_REACTORS
330
17
102
}
330
17
100
AcDbMlineStyle
  2
STANDARD
 70
     0
  3

 62
   256
 51
90.0
 52
90.0
 71
     2
 49
0.5
 62
   256
  6
BYLAYER
 49
-0.5
 62
   256
  6
BYLAYER
  0
ACDBPLACEHOLDER
  5
F
102
{ACAD_REACTORS
330
E
102
}
330
E
  0
DICTIONARYVAR
  5
5F
102
{ACAD_REACTORS
330
5E
102
}
330
5E
100
DictionaryVariables
280
     0
  1
2
  0
DICTIONARYVAR
  5
63
102
{ACAD_REACTORS
330
5E
102
}
330
5E
100
DictionaryVariables
280
     0
  1
1
  0
XRECORD
  5
57E
102
{ACAD_REACTORS
330
94
102
}
330
94
100
AcDbXrecord
280
     1
1000
ADE02C001
1070
     1
1070
     0
1002
{
1002
}
1002
{
1002
}
1002
{
1002
}
1000

  0
XRECORD
  5
92
102
{ACAD_REACTORS
330
90
102
}
330
90
100
AcDbXrecord
280
     1
  0
ENDSEC
  0
EOF
