  0
SECTION
  2
HEADER
  9
$ACADVER
  1
AC1018
  9
$ACADMAINTVER
 70
     2
  9
$DWGCODEPAGE
  3
ANSI_1252
  9
$INSBASE
 10
0.0
 20
0.0
 30
0.0
  9
$EXTMIN
 10
1044.552446411408
 20
-84.15236017326122
 30
-982.7478539693316
  9
$EXTMAX
 10
1062.005218716457
 20
-79.61890017326098
 30
-969.8808795711707
  9
$LIMMIN
 10
0.0
 20
0.0
  9
$LIMMAX
 10
12.0
 20
9.0
  9
$ORTHOMODE
 70
     0
  9
$REGENMODE
 70
     1
  9
$FILLMODE
 70
     1
  9
$QTEXTMODE
 70
     0
  9
$MIRRTEXT
 70
     0
  9
$LTSCALE
 40
1.0
  9
$ATTMODE
 70
     1
  9
$TEXTSIZE
 40
0.2
  9
$TRACEWID
 40
0.05
  9
$TEXTSTYLE
  7
Standard
  9
$CLAYER
  8
0
  9
$CELTYPE
  6
ByLayer
  9
$CECOLOR
 62
   256
  9
$CELTSCALE
 40
1.0
  9
$DISPSILH
 70
     0
  9
$DIMSCALE
 40
1.0
  9
$DIMASZ
 40
0.18
  9
$DIMEXO
 40
0.0625
  9
$DIMDLI
 40
0.38
  9
$DIMRND
 40
0.0
  9
$DIMDLE
 40
0.0
  9
$DIMEXE
 40
0.18
  9
$DIMTP
 40
0.0
  9
$DIMTM
 40
0.0
  9
$DIMTXT
 40
0.18
  9
$DIMCEN
 40
0.09
  9
$DIMTSZ
 40
0.0
  9
$DIMTOL
 70
     0
  9
$DIMLIM
 70
     0
  9
$DIMTIH
 70
     1
  9
$DIMTOH
 70
     1
  9
$DIMSE1
 70
     0
  9
$DIMSE2
 70
     0
  9
$DIMTAD
 70
     0
  9
$DIMZIN
 70
     0
  9
$DIMBLK
  1

  9
$DIMASO
 70
     1
  9
$DIMSHO
 70
     1
  9
$DIMPOST
  1

  9
$DIMAPOST
  1

  9
$DIMALT
 70
     0
  9
$DIMALTD
 70
     2
  9
$DIMALTF
 40
25.4
  9
$DIMLFAC
 40
1.0
  9
$DIMTOFL
 70
     0
  9
$DIMTVP
 40
0.0
  9
$DIMTIX
 70
     0
  9
$DIMSOXD
 70
     0
  9
$DIMSAH
 70
     0
  9
$DIMBLK1
  1

  9
$DIMBLK2
  1

  9
$DIMSTYLE
  2
Standard
  9
$DIMCLRD
 70
     0
  9
$DIMCLRE
 70
     0
  9
$DIMCLRT
 70
     0
  9
$DIMTFAC
 40
1.0
  9
$DIMGAP
 40
0.09
  9
$DIMJUST
 70
     0
  9
$DIMSD1
 70
     0
  9
$DIMSD2
 70
     0
  9
$DIMTOLJ
 70
     1
  9
$DIMTZIN
 70
     0
  9
$DIMALTZ
 70
     0
  9
$DIMALTTZ
 70
     0
  9
$DIMUPT
 70
     0
  9
$DIMDEC
 70
     4
  9
$DIMTDEC
 70
     4
  9
$DIMALTU
 70
     2
  9
$DIMALTTD
 70
     2
  9
$DIMTXSTY
  7
Standard
  9
$DIMAUNIT
 70
     0
  9
$DIMADEC
 70
     0
  9
$DIMALTRND
 40
0.0
  9
$DIMAZIN
 70
     0
  9
$DIMDSEP
 70
    46
  9
$DIMATFIT
 70
     3
  9
$DIMFRAC
 70
     0
  9
$DIMLDRBLK
  1

  9
$DIMLUNIT
 70
     2
  9
$DIMLWD
 70
    -2
  9
$DIMLWE
 70
    -2
  9
$DIMTMOVE
 70
     0
  9
$LUNITS
 70
     2
  9
$LUPREC
 70
     4
  9
$SKETCHINC
 40
0.1
  9
$FILLETRAD
 40
0.0
  9
$AUNITS
 70
     0
  9
$AUPREC
 70
     0
  9
$MENU
  1
.
  9
$ELEVATION
 40
0.0
  9
$PELEVATION
 40
0.0
  9
$THICKNESS
 40
0.0
  9
$LIMCHECK
 70
     0
  9
$CHAMFERA
 40
0.0
  9
$CHAMFERB
 40
0.0
  9
$CHAMFERC
 40
0.0
  9
$CHAMFERD
 40
0.0
  9
$SKPOLY
 70
     0
  9
$TDCREATE
 40
2455082.624148449
  9
$TDUCREATE
 40
2455082.624148449
  9
$TDUPDATE
 40
2455131.702845382
  9
$TDUUPDATE
 40
2455131.702845382
  9
$TDINDWG
 40
0.0014558449
  9
$TDUSRTIMER
 40
0.0014558449
  9
$USRTIMER
 70
     1
  9
$ANGBASE
 50
0.0
  9
$ANGDIR
 70
     0
  9
$PDMODE
 70
     0
  9
$PDSIZE
 40
0.0
  9
$PLINEWID
 40
0.0
  9
$SPLFRAME
 70
     0
  9
$SPLINETYPE
 70
     6
  9
$SPLINESEGS
 70
     8
  9
$HANDSEED
  5
872
  9
$SURFTAB1
 70
     6
  9
$SURFTAB2
 70
     6
  9
$SURFTYPE
 70
     6
  9
$SURFU
 70
     6
  9
$SURFV
 70
     6
  9
$UCSBASE
  2

  9
$UCSNAME
  2

  9
$UCSORG
 10
0.0
 20
0.0
 30
0.0
  9
$UCSXDIR
 10
1.0
 20
0.0
 30
0.0
  9
$UCSYDIR
 10
0.0
 20
1.0
 30
0.0
  9
$UCSORTHOREF
  2

  9
$UCSORTHOVIEW
 70
     0
  9
$UCSORGTOP
 10
0.0
 20
0.0
 30
0.0
  9
$UCSORGBOTTOM
 10
0.0
 20
0.0
 30
0.0
  9
$UCSORGLEFT
 10
0.0
 20
0.0
 30
0.0
  9
$UCSORGRIGHT
 10
0.0
 20
0.0
 30
0.0
  9
$UCSORGFRONT
 10
0.0
 20
0.0
 30
0.0
  9
$UCSORGBACK
 10
0.0
 20
0.0
 30
0.0
  9
$PUCSBASE
  2

  9
$PUCSNAME
  2

  9
$PUCSORG
 10
0.0
 20
0.0
 30
0.0
  9
$PUCSXDIR
 10
1.0
 20
0.0
 30
0.0
  9
$PUCSYDIR
 10
0.0
 20
1.0
 30
0.0
  9
$PUCSORTHOREF
  2

  9
$PUCSORTHOVIEW
 70
     0
  9
$PUCSORGTOP
 10
0.0
 20
0.0
 30
0.0
  9
$PUCSORGBOTTOM
 10
0.0
 20
0.0
 30
0.0
  9
$PUCSORGLEFT
 10
0.0
 20
0.0
 30
0.0
  9
$PUCSORGRIGHT
 10
0.0
 20
0.0
 30
0.0
  9
$PUCSORGFRONT
 10
0.0
 20
0.0
 30
0.0
  9
$PUCSORGBACK
 10
0.0
 20
0.0
 30
0.0
  9
$USERI1
 70
     0
  9
$USERI2
 70
     0
  9
$USERI3
 70
     0
  9
$USERI4
 70
     0
  9
$USERI5
 70
     0
  9
$USERR1
 40
0.0
  9
$USERR2
 40
0.0
  9
$USERR3
 40
0.0
  9
$USERR4
 40
0.0
  9
$USERR5
 40
0.0
  9
$WORLDVIEW
 70
     1
  9
$SHADEDGE
 70
     3
  9
$SHADEDIF
 70
    70
  9
$TILEMODE
 70
     1
  9
$MAXACTVP
 70
    64
  9
$PINSBASE
 10
0.0
 20
0.0
 30
0.0
  9
$PLIMCHECK
 70
     0
  9
$PEXTMIN
 10
0.0
 20
0.0
 30
0.0
  9
$PEXTMAX
 10
0.0
 20
0.0
 30
0.0
  9
$PLIMMIN
 10
0.0
 20
0.0
  9
$PLIMMAX
 10
12.0
 20
9.0
  9
$UNITMODE
 70
     0
  9
$VISRETAIN
 70
     1
  9
$PLINEGEN
 70
     0
  9
$PSLTSCALE
 70
     1
  9
$TREEDEPTH
 70
  3020
  9
$CMLSTYLE
  2
Standard
  9
$CMLJUST
 70
     0
  9
$CMLSCALE
 40
1.0
  9
$PROXYGRAPHICS
 70
     1
  9
$MEASUREMENT
 70
     0
  9
$CELWEIGHT
370
    -1
  9
$ENDCAPS
280
     0
  9
$JOINSTYLE
280
     0
  9
$LWDISPLAY
290
     0
  9
$INSUNITS
 70
     1
  9
$HYPERLINKBASE
  1

  9
$STYLESHEET
  1

  9
$XEDIT
290
     1
  9
$CEPSNTYPE
380
     0
  9
$PSTYLEMODE
290
     1
  9
$FINGERPRINTGUID
  2
{FDEAD576-A652-11D2-9A35-0060089B3A3F}
  9
$VERSIONGUID
  2
{107F99D8-FEAD-4CF5-BFC6-E07CFF47A8A6}
  9
$EXTNAMES
290
     1
  9
$PSVPSCALE
 40
0.0
  9
$OLESTARTUP
290
     0
  9
$SORTENTS
280
   127
  9
$INDEXCTL
280
     0
  9
$HIDETEXT
280
     1
  9
$XCLIPFRAME
290
     0
  9
$HALOGAP
280
     0
  9
$OBSCOLOR
 70
   257
  9
$OBSLTYPE
280
     0
  9
$INTERSECTIONDISPLAY
280
     0
  9
$INTERSECTIONCOLOR
 70
   257
  9
$DIMASSOC
280
     2
  9
$PROJECTNAME
  1

  0
ENDSEC
  0
SECTION
  2
CLASSES
  0
CLASS
  1
ACDBDICTIONARYWDFLT
  2
AcDbDictionaryWithDefault
  3
ObjectDBX Classes
 90
        0
 91
        1
280
     0
281
     0
  0
CLASS
  1
DICTIONARYVAR
  2
AcDbDictionaryVar
  3
ObjectDBX Classes
 90
        0
 91
        2
280
     0
281
     0
  0
CLASS
  1
SORTENTSTABLE
  2
AcDbSortentsTable
  3
ObjectDBX Classes
 90
        0
 91
        0
280
     0
281
     0
  0
ENDSEC
  0
SECTION
  2
TABLES
  0
TABLE
  2
VPORT
  5
8
330
0
100
AcDbSymbolTable
 70
     2
  0
VPORT
  5
871
330
8
100
AcDbSymbolTableRecord
100
AcDbViewportTableRecord
  2
*Active
 70
     0
 10
0.0
 20
0.0
 11
1.0
 21
1.0
 12
0.0
 22
0.0
 13
0.0
 23
0.0
 14
0.5
 24
0.5
 15
0.5
 25
0.5
 16
16.32090327861215
 26
6.26447919545896
 36
16.53318667253063
 17
1715.508906313585
 27
172.3545403068976
 37
-305.4707717460317
 40
10.03724202482901
 41
1.747826086956521
 42
50.0
 43
0.0
 44
0.0
 50
0.0
 51
101.0618440995395
 71
     0
 72
  1000
 73
     1
 74
     3
 75
     0
 76
     0
 77
     0
 78
     0
281
     0
 65
     1
110
0.0
120
0.0
130
0.0
111
1.0
121
0.0
131
0.0
112
0.0
122
1.0
132
0.0
 79
     0
146
0.0
  0
ENDTAB
  0
TABLE
  2
LTYPE
  5
5
330
0
100
AcDbSymbolTable
 70
     1
  0
LTYPE
  5
14
330
5
100
AcDbSymbolTableRecord
100
AcDbLinetypeTableRecord
  2
ByBlock
 70
     0
  3

 72
    65
 73
     0
 40
0.0
  0
LTYPE
  5
15
330
5
100
AcDbSymbolTableRecord
100
AcDbLinetypeTableRecord
  2
ByLayer
 70
     0
  3

 72
    65
 73
     0
 40
0.0
  0
LTYPE
  5
16
330
5
100
AcDbSymbolTableRecord
100
AcDbLinetypeTableRecord
  2
Continuous
 70
     0
  3
Solid line
 72
    65
 73
     0
 40
0.0
  0
ENDTAB
  0
TABLE
  2
LAYER
  5
2
330
0
100
AcDbSymbolTable
 70
    11
  0
LAYER
  5
10
330
2
100
AcDbSymbolTableRecord
100
AcDbLayerTableRecord
  2
0
 70
     0
 62
     7
  6
Continuous
370
    -3
390
F
  0
LAYER
  5
B0
330
2
100
AcDbSymbolTableRecord
100
AcDbLayerTableRecord
  2
INST_CTRL
 70
     0
 62
     7
  6
Continuous
370
    -3
390
F
  0
LAYER
  5
B1
330
2
100
AcDbSymbolTableRecord
100
AcDbLayerTableRecord
  2
INST_ID
 70
     0
 62
     1
  6
Continuous
370
    -3
390
F
  0
LAYER
  5
B2
330
2
100
AcDbSymbolTableRecord
100
AcDbLayerTableRecord
  2
slate
 70
     0
 62
    10
  6
Continuous
370
    -3
390
F
1001
AcAecLayerStandard
1000

1000

  0
LAYER
  5
B3
330
2
100
AcDbSymbolTableRecord
100
AcDbLayerTableRecord
  2
marble
 70
     0
 62
   160
  6
Continuous
370
    -3
390
F
1001
AcAecLayerStandard
1000

1000

  0
LAYER
  5
B4
330
2
100
AcDbSymbolTableRecord
100
AcDbLayerTableRecord
  2
marks
 70
     0
 62
   160
  6
Continuous
370
    -3
390
F
1001
AcAecLayerStandard
1000

1000

  0
LAYER
  5
B5
330
2
100
AcDbSymbolTableRecord
100
AcDbLayerTableRecord
  2
sideii
 70
     0
 62
     7
  6
Continuous
370
    -3
390
F
1001
AcAecLayerStandard
1000

1000

  0
LAYER
  5
B6
330
2
100
AcDbSymbolTableRecord
100
AcDbLayerTableRecord
  2
sideiii
 70
     0
 62
    83
  6
Continuous
370
    -3
390
F
1001
AcAecLayerStandard
1000

1000

  0
LAYER
  5
B7
330
2
100
AcDbSymbolTableRecord
100
AcDbLayerTableRecord
  2
wall
 70
     0
 62
   241
  6
Continuous
370
    -3
390
F
1001
AcAecLayerStandard
1000

1000

  0
LAYER
  5
B8
330
2
100
AcDbSymbolTableRecord
100
AcDbLayerTableRecord
  2
side II slate
 70
     0
 62
   251
  6
Continuous
370
    -3
390
F
1001
AcAecLayerStandard
1000

1000

  0
LAYER
  5
B9
330
2
100
AcDbSymbolTableRecord
100
AcDbLayerTableRecord
  2
CONTROL
 70
     0
 62
     7
  6
Continuous
370
    -3
390
F
  0
ENDTAB
  0
TABLE
  2
STYLE
  5
3
330
0
100
AcDbSymbolTable
 70
     2
  0
STYLE
  5
11
330
3
100
AcDbSymbolTableRecord
100
AcDbTextStyleTableRecord
  2
Standard
 70
     0
 40
0.0
 41
1.0
 50
0.0
 71
     0
 42
0.2
  3
txt
  4

  0
STYLE
  5
BA
330
3
100
AcDbSymbolTableRecord
100
AcDbTextStyleTableRecord
  2
ROMANS
 70
     0
 40
0.0
 41
0.75
 50
0.0
 71
     0
 42
0.1
  3
ROMANS.shx
  4

  0
ENDTAB
  0
TABLE
  2
VIEW
  5
6
330
0
100
AcDbSymbolTable
 70
     0
  0
ENDTAB
  0
TABLE
  2
UCS
  5
7
330
0
100
AcDbSymbolTable
 70
     0
  0
ENDTAB
  0
TABLE
  2
APPID
  5
9
330
0
100
AcDbSymbolTable
 70
     5
  0
APPID
  5
12
330
9
100
AcDbSymbolTableRecord
100
AcDbRegAppTableRecord
  2
ACAD
 70
     0
  0
APPID
  5
BC
330
9
100
AcDbSymbolTableRecord
100
AcDbRegAppTableRecord
  2
ACAD_PSEXT
 70
     0
  0
APPID
  5
BD
330
9
100
AcDbSymbolTableRecord
100
AcDbRegAppTableRecord
  2
AcAecLayerStandard
 70
     0
  0
APPID
  5
BE
330
9
100
AcDbSymbolTableRecord
100
AcDbRegAppTableRecord
  2
ADE
 70
     0
  0
APPID
  5
85E
330
9
100
AcDbSymbolTableRecord
100
AcDbRegAppTableRecord
  2
DCO15
 70
     0
  0
ENDTAB
  0
TABLE
  2
DIMSTYLE
  5
A
330
0
100
AcDbSymbolTable
 70
     2
100
AcDbDimStyleTable
 71
     0
  0
DIMSTYLE
105
27
330
A
100
AcDbSymbolTableRecord
100
AcDbDimStyleTableRecord
  2
Standard
 70
     0
340
11
  0
DIMSTYLE
105
BB
330
A
100
AcDbSymbolTableRecord
100
AcDbDimStyleTableRecord
  2
ISO-25
 70
     0
 41
2.5
 42
0.625
 43
3.75
 44
1.25
 73
     0
 74
     0
 77
     1
 78
     8
140
2.5
141
2.5
143
0.03937007874016
147
0.625
171
     3
172
     1
271
     2
272
     2
274
     3
278
    44
283
     0
284
     8
340
11
  0
ENDTAB
  0
TABLE
  2
BLOCK_RECORD
  5
1
330
0
100
AcDbSymbolTable
 70
     4
  0
BLOCK_RECORD
  5
1F
330
1
100
AcDbSymbolTableRecord
100
AcDbBlockTableRecord
  2
*Model_Space
340
22
  0
BLOCK_RECORD
  5
58
330
1
100
AcDbSymbolTableRecord
100
AcDbBlockTableRecord
  2
*Paper_Space
340
59
  0
BLOCK_RECORD
  5
5D
330
1
100
AcDbSymbolTableRecord
100
AcDbBlockTableRecord
  2
*Paper_Space0
340
5E
  0
BLOCK_RECORD
  5
89
330
1
100
AcDbSymbolTableRecord
100
AcDbBlockTableRecord
  2
ipos_id
340
0
102
{BLKREFS
331
6C4
331
754
102
}
1001
ACAD
1000
DesignCenter Data
1002
{
1070
     1
1070
     0
1002
}
  0
BLOCK_RECORD
  5
94
330
1
100
AcDbSymbolTableRecord
100
AcDbBlockTableRecord
  2
rpos_id
340
0
102
{BLKREFS
331
6BE
331
6C1
331
82C
331
82F
331
491
331
494
102
}
1001
ACAD
1000
DesignCenter Data
1002
{
1070
     1
1070
     0
1002
}
  0
BLOCK_RECORD
  5
9B
102
{ACAD_XDICTIONARY
360
9C
102
}
330
1
100
AcDbSymbolTableRecord
100
AcDbBlockTableRecord
  2
CONTROL
340
0
  0
ENDTAB
  0
ENDSEC
  0
SECTION
  2
BLOCKS
  0
BLOCK
  5
20
330
1F
100
AcDbEntity
  8
0
100
AcDbBlockBegin
  2
*Model_Space
 70
     0
 10
0.0
 20
0.0
 30
0.0
  3
*Model_Space
  1

  0
ENDBLK
  5
21
330
1F
100
AcDbEntity
  8
0
100
AcDbBlockEnd
  0
BLOCK
  5
5A
330
58
100
AcDbEntity
 67
     1
  8
0
100
AcDbBlockBegin
  2
*Paper_Space
 70
     0
 10
0.0
 20
0.0
 30
0.0
  3
*Paper_Space
  1

  0
ENDBLK
  5
5B
330
58
100
AcDbEntity
 67
     1
  8
0
100
AcDbBlockEnd
  0
BLOCK
  5
5F
330
5D
100
AcDbEntity
  8
0
100
AcDbBlockBegin
  2
*Paper_Space0
 70
     0
 10
0.0
 20
0.0
 30
0.0
  3
*Paper_Space0
  1

  0
ENDBLK
  5
60
330
5D
100
AcDbEntity
  8
0
100
AcDbBlockEnd
  0
BLOCK
  5
8A
330
89
100
AcDbEntity
  8
0
100
AcDbBlockBegin
  2
ipos_id
 70
     2
 10
0.0
 20
0.0
 30
0.0
  3
ipos_id
  1

  0
LINE
  5
8B
330
89
100
AcDbEntity
  8
0
100
AcDbLine
 10
0.0
 20
0.04
 30
0.0
 11
-0.04
 21
-0.04
 31
0.0
  0
LINE
  5
8C
330
89
100
AcDbEntity
  8
0
100
AcDbLine
 10
0.04
 20
-0.04
 30
0.0
 11
0.0
 21
0.04
 31
0.0
  0
LINE
  5
8D
330
89
100
AcDbEntity
  8
0
100
AcDbLine
 10
0.0
 20
0.0
 30
0.0
 11
0.0
 21
-0.05
 31
0.0
  0
LINE
  5
8E
330
89
100
AcDbEntity
  8
0
100
AcDbLine
 10
0.0
 20
0.0
 30
0.0
 11
-0.05
 21
0.0
 31
0.0
  0
LINE
  5
8F
330
89
100
AcDbEntity
  8
0
100
AcDbLine
 10
0.0
 20
0.0
 30
0.0
 11
0.0
 21
0.05
 31
0.0
  0
LINE
  5
90
330
89
100
AcDbEntity
  8
0
100
AcDbLine
 10
0.0
 20
0.0
 30
0.0
 11
0.05
 21
0.0
 31
0.0
  0
LINE
  5
91
330
89
100
AcDbEntity
  8
0
100
AcDbLine
 10
-0.04
 20
-0.04
 30
0.0
 11
0.04
 21
-0.04
 31
0.0
  0
ATTDEF
  5
92
330
89
100
AcDbEntity
  8
INST_ID
100
AcDbText
 10
0.0573321747136593
 20
0.0
 30
0.0
 40
0.05
  1
0
100
AcDbAttributeDefinition
  3
ID
  2
ID
 70
     0
  0
ENDBLK
  5
93
330
89
100
AcDbEntity
  8
0
100
AcDbBlockEnd
  0
BLOCK
  5
95
330
94
100
AcDbEntity
  8
0
100
AcDbBlockBegin
  2
rpos_id
 70
     2
 10
0.0
 20
0.0
 30
0.0
  3
rpos_id
  1

  0
LINE
  5
96
330
94
100
AcDbEntity
  8
0
100
AcDbLine
 10
0.0
 20
-0.05
 30
0.0
 11
0.0
 21
0.05
 31
0.0
  0
LINE
  5
97
330
94
100
AcDbEntity
  8
0
100
AcDbLine
 10
-0.05
 20
0.0
 30
0.0
 11
0.05
 21
0.0
 31
0.0
  0
CIRCLE
  5
98
330
94
100
AcDbEntity
  8
0
100
AcDbCircle
 10
0.0
 20
0.0
 30
0.0
 40
0.04
  0
ATTDEF
  5
99
330
94
100
AcDbEntity
  8
INST_ID
100
AcDbText
 10
0.0546807597205659
 20
0.0
 30
0.0
 40
0.05
  1
0
100
AcDbAttributeDefinition
  3
ID
  2
ID
 70
     0
  0
ENDBLK
  5
9A
330
94
100
AcDbEntity
  8
0
100
AcDbBlockEnd
  0
BLOCK
  5
9D
330
9B
100
AcDbEntity
  8
0
100
AcDbBlockBegin
  2
CONTROL
 70
     2
 10
0.0
 20
0.0
 30
0.0
  3
CONTROL
  1

  0
ATTDEF
  5
9E
330
9B
100
AcDbEntity
  8
0
 62
     6
100
AcDbText
 10
0.2
 20
-0.2
 30
0.0
 40
0.2
  1

 41
0.75
  7
ROMANS
100
AcDbAttributeDefinition
  3
Number
  2
NUMBER
 70
     0
  0
LINE
  5
9F
330
9B
100
AcDbEntity
  8
0
 62
     6
100
AcDbLine
 10
0.16
 20
-0.16
 30
0.16
 11
-0.16
 21
0.16
 31
-0.1599999999999999
  0
LINE
  5
A0
330
9B
100
AcDbEntity
  8
0
 62
     6
100
AcDbLine
 10
-0.16
 20
-0.16
 30
-0.16
 11
0.16
 21
0.16
 31
0.16
  0
LINE
  5
A1
330
9B
100
AcDbEntity
  8
0
 62
     6
100
AcDbLine
 10
-0.16
 20
0.16
 30
0.16
 11
0.16
 21
-0.16
 31
-0.16
  0
LINE
  5
A2
330
9B
100
AcDbEntity
  8
0
 62
     6
100
AcDbLine
 10
0.16
 20
-0.2
 30
0.2
 11
-0.16
 21
-0.2
 31
0.2
  0
LINE
  5
A3
330
9B
100
AcDbEntity
  8
0
 62
     6
100
AcDbLine
 10
-0.2
 20
-0.2
 30
0.2
 11
-0.2
 21
-0.2
 31
-0.2
  0
LINE
  5
A4
330
9B
100
AcDbEntity
  8
0
 62
     6
100
AcDbLine
 10
-0.16
 20
-0.2
 30
-0.2
 11
0.16
 21
-0.2
 31
-0.2
  0
LINE
  5
A5
330
9B
100
AcDbEntity
  8
0
 62
     6
100
AcDbLine
 10
0.2
 20
-0.2
 30
-0.2
 11
0.2
 21
-0.2
 31
0.2
  0
LINE
  5
A6
330
9B
100
AcDbEntity
  8
0
 62
     6
100
AcDbLine
 10
0.16
 20
0.2
 30
0.2
 11
-0.16
 21
0.2
 31
0.2
  0
LINE
  5
A7
330
9B
100
AcDbEntity
  8
0
 62
     6
100
AcDbLine
 10
-0.2
 20
0.2
 30
0.2
 11
-0.2
 21
0.2
 31
-0.2
  0
LINE
  5
A8
330
9B
100
AcDbEntity
  8
0
 62
     6
100
AcDbLine
 10
-0.16
 20
0.2
 30
-0.2
 11
0.16
 21
0.2
 31
-0.2
  0
LINE
  5
A9
330
9B
100
AcDbEntity
  8
0
 62
     6
100
AcDbLine
 10
0.2
 20
0.2
 30
-0.2
 11
0.2
 21
0.2
 31
0.2
  0
LINE
  5
AA
330
9B
100
AcDbEntity
  8
0
 62
     6
100
AcDbLine
 10
-0.2
 20
-0.16
 30
-0.2
 11
-0.2
 21
0.16
 31
-0.2
  0
LINE
  5
AB
330
9B
100
AcDbEntity
  8
0
 62
     6
100
AcDbLine
 10
0.2
 20
-0.16
 30
-0.2
 11
0.2
 21
0.16
 31
-0.2
  0
LINE
  5
AC
330
9B
100
AcDbEntity
  8
0
 62
     6
100
AcDbLine
 10
-0.2
 20
-0.16
 30
0.2
 11
-0.2
 21
0.16
 31
0.2
  0
LINE
  5
AD
330
9B
100
AcDbEntity
  8
0
 62
     6
100
AcDbLine
 10
0.2
 20
-0.16
 30
0.2
 11
0.2
 21
0.16
 31
0.2
  0
LINE
  5
AE
330
9B
100
AcDbEntity
  8
0
 62
     6
100
AcDbLine
 10
0.16
 20
0.16
 30
-0.16
 11
-0.16
 21
-0.16
 31
0.1599999999999999
  0
ENDBLK
  5
AF
330
9B
100
AcDbEntity
  8
0
100
AcDbBlockEnd
  0
ENDSEC
  0
SECTION
  2
ENTITIES
  0
INSERT
  5
491
330
1F
100
AcDbEntity
  8
INST_CTRL
100
AcDbBlockReference
 66
     1
  2
rpos_id
 10
-1046.524833346112
 20
-970.9321942683102
 30
-82.15211017324394
 41
6.000000000000079
 42
6.0
 43
6.0
 50
358.5567418451611
210
0.0000000000000401
220
1.0
230
0.0000000000000257
  0
ATTRIB
  5
492
330
491
100
AcDbEntity
  8
INST_ID
100
AcDbText
 10
-1046.196852869783
 20
-970.940457715371
 30
-82.15211017324392
 40
0.3
  1
STA156
 50
358.5567418451622
210
0.0000000000000401
220
1.0
230
0.0000000000000257
100
AcDbAttribute
  2
ID
 70
     0
  0
SEQEND
  5
493
330
491
100
AcDbEntity
  8
INST_CTRL
  0
INSERT
  5
494
330
1F
100
AcDbEntity
  8
INST_CTRL
100
AcDbBlockReference
 66
     1
  2
rpos_id
 10
-1061.705313888871
 20
-974.6418412240503
 30
-81.88220017324393
 41
6.000000000000079
 42
6.0
 43
6.0
 50
358.5567418451611
210
0.0000000000000401
220
1.0
230
0.0000000000000257
  0
ATTRIB
  5
495
330
494
100
AcDbEntity
  8
INST_ID
100
AcDbText
 10
-1061.377333412542
 20
-974.6501046711111
 30
-81.88220017324393
 40
0.3
  1
STA157
 50
358.5567418451622
210
0.0000000000000401
220
1.0
230
0.0000000000000257
100
AcDbAttribute
  2
ID
 70
     0
  0
SEQEND
  5
496
330
494
100
AcDbEntity
  8
INST_CTRL
  0
LINE
  5
497
330
1F
100
AcDbEntity
  8
slate
100
AcDbLine
 10
1055.937570257611
 20
-83.16863017326122
 30
-976.5204390229159
 11
1055.933768782248
 21
-83.44677017326119
 31
-976.5311481678429
210
-0.9996827586307839
220
0.0000000000000407
230
-0.0251869429734098
  0
LINE
  5
498
330
1F
100
AcDbEntity
  8
slate
100
AcDbLine
 10
1055.933768782248
 20
-83.44677017326119
 30
-976.5311481678429
 11
1055.917485138637
 21
-83.47138017326122
 31
-976.0091126917968
210
-0.9996827586307839
220
0.0000000000000407
230
-0.0251869429734098
  0
LINE
  5
499
330
1F
100
AcDbEntity
  8
slate
100
AcDbLine
 10
1055.917485138637
 20
-83.47138017326122
 30
-976.0091126917968
 11
1055.922857842976
 21
-83.19186017326121
 31
-976.0008147373444
210
-0.9996827586307839
220
0.0000000000000407
230
-0.0251869429734098
  0
LINE
  5
49A
330
1F
100
AcDbEntity
  8
slate
100
AcDbLine
 10
1055.922857842976
 20
-83.19186017326121
 30
-976.0008147373444
 11
1055.937570257611
 21
-83.16863017326122
 31
-976.5204390229159
210
-0.9996827586307839
220
0.0000000000000407
230
-0.0251869429734098
  0
LINE
  5
49B
330
1F
100
AcDbEntity
  8
slate
100
AcDbLine
 10
1055.940611228925
 20
-83.22733017326115
 30
-978.4789937647328
 11
1055.939253249539
 21
-83.39897017326114
 31
-978.4794881249137
210
-0.9996827586307839
220
0.0000000000000407
230
-0.0251869429734098
  0
LINE
  5
49C
330
1F
100
AcDbEntity
  8
slate
100
AcDbLine
 10
1055.939253249539
 20
-83.39897017326114
 30
-978.4794881249137
 11
1055.942199750135
 21
-83.40429017326115
 31
-979.0704914022601
210
-0.9996827586307839
220
0.0000000000000407
230
-0.0251869429734098
  0
LINE
  5
49D
330
1F
100
AcDbEntity
  8
slate
100
AcDbLine
 10
1055.942199750135
 20
-83.40429017326115
 30
-979.0704914022601
 11
1055.946865246185
 21
-83.23335017326115
 31
-979.0702538173054
210
-0.9996827586307839
220
0.0000000000000407
230
-0.0251869429734098
  0
LINE
  5
49E
330
1F
100
AcDbEntity
  8
slate
100
AcDbLine
 10
1055.946865246185
 20
-83.23335017326115
 30
-979.0702538173054
 11
1055.940611228925
 21
-83.22733017326115
 31
-978.4789937647328
210
-0.9996827586307839
220
0.0000000000000407
230
-0.0251869429734098
  0
LINE
  5
49F
330
1F
100
AcDbEntity
  8
slate
100
AcDbLine
 10
1055.942941244949
 20
-82.58964017326119
 30
-977.7797932634278
 11
1055.935215286391
 21
-83.03731017326118
 31
-977.7804480644352
210
0.9996827586307839
220
-0.0000000000000407
230
0.0251869429734098
  0
LINE
  5
4A0
330
1F
100
AcDbEntity
  8
slate
100
AcDbLine
 10
1055.935215286391
 20
-83.03731017326118
 30
-977.7804480644352
 11
1055.932066615942
 21
-83.03723017326118
 31
-977.5256465362328
210
0.9996827586307839
220
-0.0000000000000407
230
0.0251869429734098
  0
LINE
  5
4A1
330
1F
100
AcDbEntity
  8
slate
100
AcDbLine
 10
1055.932066615942
 20
-83.03723017326118
 30
-977.5256465362328
 11
1055.938724545023
 21
-82.58744017326121
 31
-977.5282596723476
210
0.9996827586307839
220
-0.0000000000000407
230
0.0251869429734098
  0
LINE
  5
4A2
330
1F
100
AcDbEntity
  8
slate
100
AcDbLine
 10
1055.938724545023
 20
-82.58744017326121
 30
-977.5282596723476
 11
1055.942941244949
 21
-82.58964017326119
 31
-977.7797932634278
210
0.9996827586307839
220
-0.0000000000000407
230
0.0251869429734098
  0
LINE
  5
4A3
330
1F
100
AcDbEntity
  8
slate
100
AcDbLine
 10
1055.934867113577
 20
-82.53977017326119
 30
-977.5006180601904
 11
1055.935876193454
 21
-81.90487017326118
 31
-977.5013628808409
210
0.9996827586307839
220
-0.0000000000000407
230
0.0251869429734098
  0
LINE
  5
4A4
330
1F
100
AcDbEntity
  8
slate
100
AcDbLine
 10
1055.935876193454
 20
-81.90487017326118
 30
-977.5013628808409
 11
1055.9388030013
 21
-81.90781017326116
 31
-977.8116776081677
210
0.9996827586307839
220
-0.0000000000000407
230
0.0251869429734098
  0
LINE
  5
4A5
330
1F
100
AcDbEntity
  8
slate
100
AcDbLine
 10
1055.9388030013
 20
-81.90781017326116
 30
-977.8116776081677
 11
1055.936467791576
 21
-82.54384017326117
 31
-977.8107061167647
210
0.9996827586307839
220
-0.0000000000000407
230
0.0251869429734098
  0
LINE
  5
4A6
330
1F
100
AcDbEntity
  8
slate
100
AcDbLine
 10
1055.936467791576
 20
-82.54384017326117
 30
-977.8107061167647
 11
1055.934867113577
 21
-82.53977017326119
 31
-977.5006180601904
210
0.9996827586307839
220
-0.0000000000000407
230
0.0251869429734098
  0
LINE
  5
4A7
330
1F
100
AcDbEntity
  8
slate
100
AcDbLine
 10
1055.94689205835
 20
-81.61193017326118
 30
-977.6376386571941
 11
1055.948860737705
 21
-81.8546001732612
 31
-977.6391495514976
210
0.9996827586307839
220
-0.0000000000000407
230
0.0251869429734098
  0
LINE
  5
4A8
330
1F
100
AcDbEntity
  8
slate
100
AcDbLine
 10
1055.948860737705
 20
-81.8546001732612
 30
-977.6391495514976
 11
1055.939754758888
 21
-81.8578701732612
 31
-977.0152909895223
210
0.9996827586307839
220
-0.0000000000000407
230
0.0251869429734098
  0
LINE
  5
4A9
330
1F
100
AcDbEntity
  8
slate
100
AcDbLine
 10
1055.939754758888
 20
-81.8578701732612
 30
-977.0152909895223
 11
1055.946041228335
 21
-81.33820017326121
 31
-977.0111013234393
210
0.9996827586307839
220
-0.0000000000000407
230
0.0251869429734098
  0
LINE
  5
4AA
330
1F
100
AcDbEntity
  8
slate
100
AcDbLine
 10
1055.946041228335
 20
-81.33820017326121
 30
-977.0111013234393
 11
1055.943417879143
 21
-81.33720017326117
 31
-977.2706597402535
210
0.9996827586307839
220
-0.0000000000000407
230
0.0251869429734098
  0
LINE
  5
4AB
330
1F
100
AcDbEntity
  8
slate
100
AcDbLine
 10
1055.943417879143
 20
-81.33720017326117
 30
-977.2706597402535
 11
1055.945309336421
 21
-81.59304017326119
 31
-977.2734729927069
210
0.9996827586307839
220
-0.0000000000000407
230
0.0251869429734098
  0
LINE
  5
4AC
330
1F
100
AcDbEntity
  8
slate
100
AcDbLine
 10
1055.945309336421
 20
-81.59304017326119
 30
-977.2734729927069
 11
1055.945228357672
 21
-81.59155017326119
 31
-977.6172640970747
210
0.9996827586307839
220
-0.0000000000000407
230
0.0251869429734098
  0
LINE
  5
4AD
330
1F
100
AcDbEntity
  8
slate
100
AcDbLine
 10
1055.938564124311
 20
-81.59718017326119
 30
-977.6759405633429
 11
1055.932713539428
 21
-81.85933017326119
 31
-977.6763880636563
210
0.9996827586307839
220
-0.0000000000000407
230
0.0251869429734098
  0
LINE
  5
4AE
330
1F
100
AcDbEntity
  8
slate
100
AcDbLine
 10
1055.932713539428
 20
-81.85933017326119
 30
-977.6763880636563
 11
1055.950527342629
 21
-81.85900017326117
 31
-978.3056090033234
210
0.9996827586307839
220
-0.0000000000000407
230
0.0251869429734098
  0
LINE
  5
4AF
330
1F
100
AcDbEntity
  8
slate
100
AcDbLine
 10
1055.950527342629
 20
-81.85900017326117
 30
-978.3056090033234
 11
1055.973415346344
 21
-81.33298017326115
 31
-978.3012711483319
210
0.9996827586307839
220
-0.0000000000000407
230
0.0251869429734098
  0
LINE
  5
4B0
330
1F
100
AcDbEntity
  8
slate
100
AcDbLine
 10
1055.973415346344
 20
-81.33298017326115
 30
-978.3012711483319
 11
1055.952905034891
 21
-81.32914017326118
 31
-978.0474172074052
210
0.9996827586307839
220
-0.0000000000000407
230
0.0251869429734098
  0
LINE
  5
4B1
330
1F
100
AcDbEntity
  8
slate
100
AcDbLine
 10
1055.952905034891
 20
-81.32914017326118
 30
-978.0474172074052
 11
1055.95617492704
 21
-81.59630017326117
 31
-978.0469747084389
210
0.9996827586307839
220
-0.0000000000000407
230
0.0251869429734098
  0
LINE
  5
4B2
330
1F
100
AcDbEntity
  8
slate
100
AcDbLine
 10
1055.95617492704
 20
-81.59630017326117
 30
-978.0469747084389
 11
1055.938564124311
 21
-81.59718017326119
 31
-977.6759405633429
210
0.9996827586307839
220
-0.0000000000000407
230
0.0251869429734098
  0
LINE
  5
4B3
330
1F
100
AcDbEntity
  8
slate
100
AcDbLine
 10
1055.941484695779
 20
-81.02660017326121
 30
-977.0164577878572
 11
1055.939095376036
 21
-81.24900017326121
 31
-977.0161178596779
210
0.9996827586307839
220
-0.0000000000000407
230
0.0251869429734098
  0
LINE
  5
4B4
330
1F
100
AcDbEntity
  8
slate
100
AcDbLine
 10
1055.939095376036
 20
-81.24900017326121
 30
-977.0161178596779
 11
1055.938553598185
 21
-81.24910017326119
 31
-977.2614193251785
210
0.9996827586307839
220
-0.0000000000000407
230
0.0251869429734098
  0
LINE
  5
4B5
330
1F
100
AcDbEntity
  8
slate
100
AcDbLine
 10
1055.938553598185
 20
-81.24910017326119
 30
-977.2614193251785
 11
1055.938818109281
 21
-80.78677017326118
 31
-977.2631832225339
210
0.9996827586307839
220
-0.0000000000000407
230
0.0251869429734098
  0
LINE
  5
4B6
330
1F
100
AcDbEntity
  8
slate
100
AcDbLine
 10
1055.938818109281
 20
-80.78677017326118
 30
-977.2631832225339
 11
1055.944038893608
 21
-80.78709017326119
 31
-977.040811181326
210
0.9996827586307839
220
-0.0000000000000407
230
0.0251869429734098
  0
LINE
  5
4B7
330
1F
100
AcDbEntity
  8
slate
100
AcDbLine
 10
1055.928314190164
 20
-80.72467017326118
 30
-977.259586643162
 11
1055.944288826869
 21
-80.12766017326118
 31
-977.2563932778307
210
0.9996827586307839
220
-0.0000000000000407
230
0.0251869429734098
  0
LINE
  5
4B8
330
1F
100
AcDbEntity
  8
slate
100
AcDbLine
 10
1055.944288826869
 20
-80.12766017326118
 30
-977.2563932778307
 11
1055.931585469905
 21
-80.12339017326121
 31
-976.690253633642
210
0.9996827586307839
220
-0.0000000000000407
230
0.0251869429734098
  0
LINE
  5
4B9
330
1F
100
AcDbEntity
  8
slate
100
AcDbLine
 10
1055.931585469905
 20
-80.12339017326121
 30
-976.690253633642
 11
1055.936388852524
 21
-80.7286401732612
 31
-976.693503682168
210
0.9996827586307839
220
-0.0000000000000407
230
0.0251869429734098
  0
LINE
  5
4BA
330
1F
100
AcDbEntity
  8
slate
100
AcDbLine
 10
1055.936388852524
 20
-80.7286401732612
 30
-976.693503682168
 11
1055.928314190164
 21
-80.72467017326118
 31
-977.259586643162
210
0.9996827586307839
220
-0.0000000000000407
230
0.0251869429734098
  0
LINE
  5
4BB
330
1F
100
AcDbEntity
  8
slate
100
AcDbLine
 10
1055.939664623582
 20
-79.78692017326119
 30
-976.6154764220342
 11
1055.934421782454
 21
-79.78522017326122
 31
-976.3692703664286
210
0.9996827586307839
220
-0.0000000000000407
230
0.0251869429734098
  0
LINE
  5
4BC
330
1F
100
AcDbEntity
  8
slate
100
AcDbLine
 10
1055.934421782454
 20
-79.78522017326122
 30
-976.3692703664286
 11
1055.939289745484
 21
-81.36447017326123
 31
-976.3794509870354
210
0.9996827586307839
220
-0.0000000000000407
230
0.0251869429734098
  0
LINE
  5
4BD
330
1F
100
AcDbEntity
  8
slate
100
AcDbLine
 10
1055.939289745484
 20
-81.36447017326123
 30
-976.3794509870354
 11
1055.94341448918
 21
-81.36374017326119
 31
-976.6233644768007
210
0.9996827586307839
220
-0.0000000000000407
230
0.0251869429734098
  0
LINE
  5
4BE
330
1F
100
AcDbEntity
  8
slate
100
AcDbLine
 10
1055.94341448918
 20
-81.36374017326119
 30
-976.6233644768007
 11
1055.939664623582
 21
-79.78692017326119
 31
-976.6154764220342
210
0.9996827586307839
220
-0.0000000000000407
230
0.0251869429734098
  0
LINE
  5
4BF
330
1F
100
AcDbEntity
  8
slate
100
AcDbLine
 10
1055.928532183374
 20
-81.3467701732612
 30
-976.3054384573026
 11
1055.936848968105
 21
-81.1221201732612
 31
-976.309970420646
210
0.9996827586307839
220
-0.0000000000000407
230
0.0251869429734098
  0
LINE
  5
4C0
330
1F
100
AcDbEntity
  8
slate
100
AcDbLine
 10
1055.936848968105
 20
-81.1221201732612
 30
-976.309970420646
 11
1055.939766816363
 21
-81.12449017326122
 31
-975.9136111874223
210
0.9996827586307839
220
-0.0000000000000407
230
0.0251869429734098
  0
LINE
  5
4C1
330
1F
100
AcDbEntity
  8
slate
100
AcDbLine
 10
1055.939766816363
 20
-81.12449017326122
 30
-975.9136111874223
 11
1055.923845468273
 21
-81.34353017326123
 31
-975.9093908586461
210
0.9996827586307839
220
-0.0000000000000407
230
0.0251869429734098
  0
LINE
  5
4C2
330
1F
100
AcDbEntity
  8
slate
100
AcDbLine
 10
1055.923845468273
 20
-81.34353017326123
 30
-975.9093908586461
 11
1055.928532183374
 21
-81.3467701732612
 31
-976.3054384573026
210
0.9996827586307839
220
-0.0000000000000407
230
0.0251869429734098
  0
LINE
  5
4C3
330
1F
100
AcDbEntity
  8
slate
100
AcDbLine
 10
1055.939841839922
 20
-79.8993301732612
 30
-976.296150655153
 11
1055.9388529096
 21
-80.8433701732612
 31
-976.2962055807092
210
0.9996827586307839
220
-0.0000000000000407
230
0.0251869429734098
  0
LINE
  5
4C4
330
1F
100
AcDbEntity
  8
slate
100
AcDbLine
 10
1055.9388529096
 20
-80.8433701732612
 30
-976.2962055807092
 11
1055.907420177228
 21
-80.83761017326123
 31
-975.8931093963616
210
0.9996827586307839
220
-0.0000000000000407
230
0.0251869429734098
  0
LINE
  5
4C5
330
1F
100
AcDbEntity
  8
slate
100
AcDbLine
 10
1055.907420177228
 20
-80.83761017326123
 30
-975.8931093963616
 11
1055.924637454722
 21
-79.85975017326123
 31
-975.900328035826
210
0.9996827586307839
220
-0.0000000000000407
230
0.0251869429734098
  0
LINE
  5
4C6
330
1F
100
AcDbEntity
  8
slate
100
AcDbLine
 10
1055.924637454722
 20
-79.85975017326123
 30
-975.900328035826
 11
1055.939841839922
 21
-79.8993301732612
 31
-976.296150655153
210
0.9996827586307839
220
-0.0000000000000407
230
0.0251869429734098
  0
LINE
  5
4C7
330
1F
100
AcDbEntity
  8
slate
100
AcDbLine
 10
1055.960779380162
 20
-81.30116017326116
 30
-978.3055607705373
 11
1055.958156991516
 21
-81.29902017326116
 31
-978.0466346784226
210
0.9996827586307839
220
-0.0000000000000407
230
0.0251869429734098
  0
LINE
  5
4C8
330
1F
100
AcDbEntity
  8
slate
100
AcDbLine
 10
1055.958156991516
 20
-81.29902017326116
 30
-978.0466346784226
 11
1055.950876980146
 21
-80.33757017326115
 31
-978.0502992021922
210
0.9996827586307839
220
-0.0000000000000407
230
0.0251869429734098
  0
LINE
  5
4C9
330
1F
100
AcDbEntity
  8
slate
100
AcDbLine
 10
1055.950876980146
 20
-80.33757017326115
 30
-978.0502992021922
 11
1055.954093151602
 21
-80.33982017326115
 31
-978.307779880188
210
0.9996827586307839
220
-0.0000000000000407
230
0.0251869429734098
  0
LINE
  5
4CA
330
1F
100
AcDbEntity
  8
slate
100
AcDbLine
 10
1055.954093151602
 20
-80.33982017326115
 30
-978.307779880188
 11
1055.960779380162
 21
-81.30116017326116
 31
-978.3055607705373
210
0.9996827586307839
220
-0.0000000000000407
230
0.0251869429734098
  0
LINE
  5
4CB
330
1F
100
AcDbEntity
  8
slate
100
AcDbLine
 10
1055.957017375799
 20
-80.72508017326114
 30
-978.3392762198618
 11
1055.955192981586
 21
-80.32669017326117
 31
-978.3458742639474
210
0.9996827586307839
220
-0.0000000000000407
230
0.0251869429734098
  0
LINE
  5
4CC
330
1F
100
AcDbEntity
  8
slate
100
AcDbLine
 10
1055.955192981586
 20
-80.32669017326117
 30
-978.3458742639474
 11
1055.958078460626
 21
-80.32941017326114
 31
-979.2997241882074
210
0.9996827586307839
220
-0.0000000000000407
230
0.0251869429734098
  0
LINE
  5
4CD
330
1F
100
AcDbEntity
  8
slate
100
AcDbLine
 10
1055.958078460626
 20
-80.32941017326114
 30
-979.2997241882074
 11
1055.95568094905
 21
-80.72552017326115
 31
-979.3022353708456
210
0.9996827586307839
220
-0.0000000000000407
230
0.0251869429734098
  0
LINE
  5
4CE
330
1F
100
AcDbEntity
  8
slate
100
AcDbLine
 10
1055.95568094905
 20
-80.72552017326115
 30
-979.3022353708456
 11
1055.957017375799
 21
-80.72508017326114
 31
-978.3392762198618
210
0.9996827586307839
220
-0.0000000000000407
230
0.0251869429734098
  0
LINE
  5
4CF
330
1F
100
AcDbEntity
  8
slate
100
AcDbLine
 10
1055.959030072777
 20
-81.07742017326112
 30
-979.9945806572241
 11
1055.96291917272
 21
-81.07798017326112
 31
-979.8281399007922
210
0.9996827586307839
220
-0.0000000000000407
230
0.0251869429734098
  0
LINE
  5
4D0
330
1F
100
AcDbEntity
  8
slate
100
AcDbLine
 10
1055.96291917272
 20
-81.07798017326112
 30
-979.8281399007922
 11
1055.948037512299
 21
-82.03854017326113
 31
-979.8393782896065
210
0.9996827586307839
220
-0.0000000000000407
230
0.0251869429734098
  0
LINE
  5
4D1
330
1F
100
AcDbEntity
  8
slate
100
AcDbLine
 10
1055.948037512299
 20
-82.03854017326113
 30
-979.8393782896065
 11
1055.950921685902
 21
-82.03375017326113
 31
-980.0026874545133
210
0.9996827586307839
220
-0.0000000000000407
230
0.0251869429734098
  0
LINE
  5
4D2
330
1F
100
AcDbEntity
  8
slate
100
AcDbLine
 10
1055.950921685902
 20
-82.03375017326113
 30
-980.0026874545133
 11
1055.959030072777
 21
-81.07742017326112
 31
-979.9945806572241
210
0.9996827586307839
220
-0.0000000000000407
230
0.0251869429734098
  0
LINE
  5
4D3
330
1F
100
AcDbEntity
  8
slate
100
AcDbLine
 10
1055.955661345136
 20
-80.14807017326111
 30
-980.0200835957623
 11
1055.953934316687
 21
-80.35091017326113
 31
-980.0210173905677
210
0.9996827586307839
220
-0.0000000000000407
230
0.0251869429734098
  0
LINE
  5
4D4
330
1F
100
AcDbEntity
  8
slate
100
AcDbLine
 10
1055.953934316687
 20
-80.35091017326113
 30
-980.0210173905677
 11
1055.959478920446
 21
-80.35389017326114
 31
-979.8392900875304
210
0.9996827586307839
220
-0.0000000000000407
230
0.0251869429734098
  0
LINE
  5
4D5
330
1F
100
AcDbEntity
  8
slate
100
AcDbLine
 10
1055.959478920446
 20
-80.35389017326114
 30
-979.8392900875304
 11
1055.956629896667
 21
-79.91114017326115
 31
-979.8346003579538
210
0.9996827586307839
220
-0.0000000000000407
230
0.0251869429734098
  0
LINE
  5
4D6
330
1F
100
AcDbEntity
  8
slate
100
AcDbLine
 10
1055.955008849512
 20
-80.08000017326114
 30
-979.6713994130847
 11
1055.959516639258
 21
-80.26882017326114
 31
-979.6672845702429
210
0.9996827586307839
220
-0.0000000000000407
230
0.0251869429734098
  0
LINE
  5
4D7
330
1F
100
AcDbEntity
  8
slate
100
AcDbLine
 10
1055.959516639258
 20
-80.26882017326114
 30
-979.6672845702429
 11
1055.961622791132
 21
-80.27640017326115
 31
-979.2057551064768
210
0.9996827586307839
220
-0.0000000000000407
230
0.0251869429734098
  0
LINE
  5
4D8
330
1F
100
AcDbEntity
  8
slate
100
AcDbLine
 10
1055.956188808772
 20
-81.08601017326114
 30
-978.3286237095154
 11
1055.952877687986
 21
-81.40948017326115
 31
-978.3278268537301
210
0.9996827586307839
220
-0.0000000000000407
230
0.0251869429734098
  0
LINE
  5
4D9
330
1F
100
AcDbEntity
  8
slate
100
AcDbLine
 10
1055.952877687986
 20
-81.40948017326115
 30
-978.3278268537301
 11
1055.957398048152
 21
-81.41344017326117
 31
-978.5255057115881
210
0.9996827586307839
220
-0.0000000000000407
230
0.0251869429734098
  0
LINE
  5
4DA
330
1F
100
AcDbEntity
  8
slate
100
AcDbLine
 10
1055.957398048152
 20
-81.41344017326117
 30
-978.5255057115881
 11
1055.959944114916
 21
-81.09163017326116
 31
-978.5209501387333
210
0.9996827586307839
220
-0.0000000000000407
230
0.0251869429734098
  0
LINE
  5
4DB
330
1F
100
AcDbEntity
  8
slate
100
AcDbLine
 10
1055.959944114916
 20
-81.09163017326116
 30
-978.5209501387333
 11
1055.956188808772
 21
-81.08601017326114
 31
-978.3286237095154
210
0.9996827586307839
220
-0.0000000000000407
230
0.0251869429734098
  0
LINE
  5
4DC
330
1F
100
AcDbEntity
  8
slate
100
AcDbLine
 10
1055.959345168573
 20
-81.09210017326118
 30
-978.530528262938
 11
1055.964024877016
 21
-81.41422017326116
 31
-978.5403835218842
210
0.9996827586307839
220
-0.0000000000000407
230
0.0251869429734098
  0
LINE
  5
4DD
330
1F
100
AcDbEntity
  8
slate
100
AcDbLine
 10
1055.964024877016
 20
-81.41422017326116
 30
-978.5403835218842
 11
1055.958969132111
 21
-81.40835017326114
 31
-979.7638690008513
210
0.9996827586307839
220
-0.0000000000000407
230
0.0251869429734098
  0
LINE
  5
4DE
330
1F
100
AcDbEntity
  8
slate
100
AcDbLine
 10
1055.958969132111
 20
-81.40835017326114
 30
-979.7638690008513
 11
1055.959581781241
 21
-81.08654017326115
 31
-979.7592020895553
210
0.9996827586307839
220
-0.0000000000000407
230
0.0251869429734098
  0
LINE
  5
4DF
330
1F
100
AcDbEntity
  8
slate
100
AcDbLine
 10
1055.959581781241
 20
-81.08654017326115
 30
-979.7592020895553
 11
1055.959345168573
 21
-81.09210017326118
 31
-978.530528262938
210
0.9996827586307839
220
-0.0000000000000407
230
0.0251869429734098
  0
LINE
  5
4E0
330
1F
100
AcDbEntity
  8
slate
100
AcDbLine
 10
1055.948156628961
 20
-80.4618001732612
 30
-977.6810805881039
 11
1055.948895828441
 21
-80.41928017326117
 31
-977.5242122047879
210
0.9996827586307839
220
-0.0000000000000407
230
0.0251869429734098
  0
LINE
  5
4E1
330
1F
100
AcDbEntity
  8
slate
100
AcDbLine
 10
1055.948895828441
 20
-80.41928017326117
 30
-977.5242122047879
 11
1055.947578084883
 21
-80.3401401732612
 31
-977.4195021763668
210
0.9996827586307839
220
-0.0000000000000407
230
0.0251869429734098
  0
LINE
  5
4E2
330
1F
100
AcDbEntity
  8
slate
100
AcDbLine
 10
1055.947578084883
 20
-80.3401401732612
 30
-977.4195021763668
 11
1055.935874673858
 21
-80.25033017326117
 31
-977.357577304382
210
0.9996827586307839
220
-0.0000000000000407
230
0.0251869429734098
  0
LINE
  5
4E3
330
1F
100
AcDbEntity
  8
slate
100
AcDbLine
 10
1055.935874673858
 20
-80.25033017326117
 30
-977.357577304382
 11
1055.944361885347
 21
-80.1418901732612
 31
-977.3248031401495
210
0.9996827586307839
220
-0.0000000000000407
230
0.0251869429734098
  0
LINE
  5
4E4
330
1F
100
AcDbEntity
  8
slate
100
AcDbLine
 10
1055.944361885347
 20
-80.1418901732612
 30
-977.3248031401495
 11
1055.938303819983
 21
-80.08320017326118
 31
-977.3186037575957
210
0.9996827586307839
220
-0.0000000000000407
230
0.0251869429734098
  0
LINE
  5
4E5
330
1F
100
AcDbEntity
  8
slate
100
AcDbLine
 10
1055.938303819983
 20
-80.08320017326118
 30
-977.3186037575957
 11
1055.944065902306
 21
-79.9946601732612
 31
-977.33211291402
210
0.9996827586307839
220
-0.0000000000000407
230
0.0251869429734098
  0
LINE
  5
4E6
330
1F
100
AcDbEntity
  8
slate
100
AcDbLine
 10
1055.944065902306
 20
-79.9946601732612
 30
-977.33211291402
 11
1055.944055562668
 21
-79.90500017326119
 31
-977.3714056397219
210
0.9996827586307839
220
-0.0000000000000407
230
0.0251869429734098
  0
LINE
  5
4E7
330
1F
100
AcDbEntity
  8
slate
100
AcDbLine
 10
1055.944055562668
 20
-79.90500017326119
 30
-977.3714056397219
 11
1055.944292258325
 21
-79.81069017326118
 31
-977.4459133149989
210
0.9996827586307839
220
-0.0000000000000407
230
0.0251869429734098
  0
LINE
  5
4E8
330
1F
100
AcDbEntity
  8
slate
100
AcDbLine
 10
1055.944292258325
 20
-79.81069017326118
 30
-977.4459133149989
 11
1055.945488739535
 21
-79.75858017326117
 31
-977.5144449203553
210
0.9996827586307839
220
-0.0000000000000407
230
0.0251869429734098
  0
LINE
  5
4E9
330
1F
100
AcDbEntity
  8
slate
100
AcDbLine
 10
1055.945488739535
 20
-79.75858017326117
 30
-977.5144449203553
 11
1055.942780520405
 21
-79.71945017326118
 31
-977.6090431425856
210
0.9996827586307839
220
-0.0000000000000407
230
0.0251869429734098
  0
LINE
  5
4EA
330
1F
100
AcDbEntity
  8
slate
100
AcDbLine
 10
1055.942780520405
 20
-79.71945017326118
 30
-977.6090431425856
 11
1055.945354213179
 21
-79.71403017326119
 31
-977.6718882562022
210
0.9996827586307839
220
-0.0000000000000407
230
0.0251869429734098
  0
LINE
  5
4EB
330
1F
100
AcDbEntity
  8
slate
100
AcDbLine
 10
1055.945354213179
 20
-79.71403017326119
 30
-977.6718882562022
 11
1055.94069475948
 21
-79.71483017326116
 31
-977.7724175056336
210
0.9996827586307839
220
-0.0000000000000407
230
0.0251869429734098
  0
LINE
  5
4EC
330
1F
100
AcDbEntity
  8
slate
100
AcDbLine
 10
1055.94069475948
 20
-79.71483017326116
 30
-977.7724175056336
 11
1055.942010471319
 21
-79.73262017326118
 31
-977.8282120672177
210
0.9996827586307839
220
-0.0000000000000407
230
0.0251869429734098
  0
LINE
  5
4ED
330
1F
100
AcDbEntity
  8
slate
100
AcDbLine
 10
1055.942010471319
 20
-79.73262017326118
 30
-977.8282120672177
 11
1055.947663803882
 21
-79.79242017326118
 31
-977.9223695477009
210
0.9996827586307839
220
-0.0000000000000407
230
0.0251869429734098
  0
LINE
  5
4EE
330
1F
100
AcDbEntity
  8
slate
100
AcDbLine
 10
1055.947663803882
 20
-79.79242017326118
 30
-977.9223695477009
 11
1055.947288917818
 21
-79.87617017326115
 31
-978.0031746246478
210
0.9996827586307839
220
-0.0000000000000407
230
0.0251869429734098
  0
LINE
  5
4EF
330
1F
100
AcDbEntity
  8
slate
100
AcDbLine
 10
1055.947288917818
 20
-79.87617017326115
 30
-978.0031746246478
 11
1055.946012471206
 21
-79.96496017326117
 31
-978.0450200495359
210
0.9996827586307839
220
-0.0000000000000407
230
0.0251869429734098
  0
LINE
  5
4F0
330
1F
100
AcDbEntity
  8
slate
100
AcDbLine
 10
1055.946012471206
 20
-79.96496017326117
 30
-978.0450200495359
 11
1055.94870436995
 21
-80.04192017326117
 31
-978.0629279299564
210
0.9996827586307839
220
-0.0000000000000407
230
0.0251869429734098
  0
LINE
  5
4F1
330
1F
100
AcDbEntity
  8
slate
100
AcDbLine
 10
1055.94870436995
 20
-80.04192017326117
 30
-978.0629279299564
 11
1055.946457602438
 21
-80.10041017326116
 31
-978.063084568854
210
0.9996827586307839
220
-0.0000000000000407
230
0.0251869429734098
  0
LINE
  5
4F2
330
1F
100
AcDbEntity
  8
slate
100
AcDbLine
 10
1055.946457602438
 20
-80.10041017326116
 30
-978.063084568854
 11
1055.94979421065
 21
-80.22082017326116
 31
-978.0394830425123
210
0.9996827586307839
220
-0.0000000000000407
230
0.0251869429734098
  0
LINE
  5
4F3
330
1F
100
AcDbEntity
  8
slate
100
AcDbLine
 10
1055.94979421065
 20
-80.22082017326116
 30
-978.0394830425123
 11
1055.951996830188
 21
-80.30811017326119
 31
-977.9923126008442
210
0.9996827586307839
220
-0.0000000000000407
230
0.0251869429734098
  0
LINE
  5
4F4
330
1F
100
AcDbEntity
  8
slate
100
AcDbLine
 10
1055.951996830188
 20
-80.30811017326119
 30
-977.9923126008442
 11
1055.952642961607
 21
-80.38110017326118
 31
-977.9234644852987
210
0.9996827586307839
220
-0.0000000000000407
230
0.0251869429734098
  0
LINE
  5
4F5
330
1F
100
AcDbEntity
  8
slate
100
AcDbLine
 10
1055.952642961607
 20
-80.38110017326118
 30
-977.9234644852987
 11
1055.952947564366
 21
-80.43452017326117
 31
-977.8295470187806
210
0.9996827586307839
220
-0.0000000000000407
230
0.0251869429734098
  0
LINE
  5
4F6
330
1F
100
AcDbEntity
  8
slate
100
AcDbLine
 10
1055.952947564366
 20
-80.43452017326117
 30
-977.8295470187806
 11
1055.953185984975
 21
-80.45445017326116
 31
-977.7512661797739
210
0.9996827586307839
220
-0.0000000000000407
230
0.0251869429734098
  0
LINE
  5
4F7
330
1F
100
AcDbEntity
  8
slate
100
AcDbLine
 10
1055.953185984975
 20
-80.45445017326116
 30
-977.7512661797739
 11
1055.948156628961
 21
-80.4618001732612
 31
-977.6810805881039
210
0.9996827586307839
220
-0.0000000000000407
230
0.0251869429734098
  0
LINE
  5
4F8
330
1F
100
AcDbEntity
  8
slate
100
AcDbLine
 10
1055.954408376026
 20
-82.07058017326113
 30
-979.8373471826739
 11
1055.947356258715
 21
-82.27280017326114
 31
-979.842116316917
210
0.9996827586307839
220
-0.0000000000000407
230
0.0251869429734098
  0
LINE
  5
4F9
330
1F
100
AcDbEntity
  8
slate
100
AcDbLine
 10
1055.947356258715
 20
-82.27280017326114
 30
-979.842116316917
 11
1055.94072880751
 21
-82.27055017326112
 31
-980.0126273353013
210
0.9996827586307839
220
-0.0000000000000407
230
0.0251869429734098
  0
LINE
  5
4FA
330
1F
100
AcDbEntity
  8
slate
100
AcDbLine
 10
1055.94072880751
 20
-82.27055017326112
 30
-980.0126273353013
 11
1055.952070391546
 21
-82.07190017326112
 31
-980.0030186271914
210
0.9996827586307839
220
-0.0000000000000407
230
0.0251869429734098
  0
LINE
  5
4FB
330
1F
100
AcDbEntity
  8
slate
100
AcDbLine
 10
1055.952070391546
 20
-82.07190017326112
 30
-980.0030186271914
 11
1055.954408376026
 21
-82.07058017326113
 31
-979.8373471826739
210
0.9996827586307839
220
-0.0000000000000407
230
0.0251869429734098
  0
LINE
  5
4FC
330
1F
100
AcDbEntity
  8
slate
100
AcDbLine
 10
1055.956747064566
 20
-79.93162017326113
 30
-979.8138408210686
 11
1055.957582978134
 21
-79.97321017326112
 31
-979.8108888304676
210
0.9996827586307839
220
-0.0000000000000407
230
0.0251869429734098
  0
LINE
  5
4FD
330
1F
100
AcDbEntity
  8
slate
100
AcDbLine
 10
1055.957582978134
 20
-79.97321017326112
 30
-979.8108888304676
 11
1055.957550315161
 21
-79.97174017326114
 31
-979.010765821029
210
0.9996827586307839
220
-0.0000000000000407
230
0.0251869429734098
  0
LINE
  5
4FE
330
1F
100
AcDbEntity
  8
slate
100
AcDbLine
 10
1055.957550315161
 20
-79.97174017326114
 30
-979.010765821029
 11
1055.951718968325
 21
-79.70852017326115
 31
-979.0111828271207
210
0.9996827586307839
220
-0.0000000000000407
230
0.0251869429734098
  0
LINE
  5
4FF
330
1F
100
AcDbEntity
  8
slate
100
AcDbLine
 10
1055.951718968325
 20
-79.70852017326115
 30
-979.0111828271207
 11
1055.953210731021
 21
-79.70670017326114
 31
-979.7846506301636
210
0.9996827586307839
220
-0.0000000000000407
230
0.0251869429734098
  0
LINE
  5
500
330
1F
100
AcDbEntity
  8
slate
100
AcDbLine
 10
1055.958115456089
 20
-82.31146017326114
 30
-979.9912326314903
 11
1055.953702147554
 21
-82.55159017326112
 31
-979.9915538911573
210
0.9996827586307839
220
-0.0000000000000407
230
0.0251869429734098
  0
LINE
  5
501
330
1F
100
AcDbEntity
  8
slate
100
AcDbLine
 10
1055.953702147554
 20
-82.55159017326112
 30
-979.9915538911573
 11
1055.952892472417
 21
-82.55546017326114
 31
-979.4377185849281
210
0.9996827586307839
220
-0.0000000000000407
230
0.0251869429734098
  0
LINE
  5
502
330
1F
100
AcDbEntity
  8
slate
100
AcDbLine
 10
1055.952892472417
 20
-82.55546017326114
 30
-979.4377185849281
 11
1055.960696618622
 21
-82.31237017326114
 31
-979.4330205319258
210
0.9996827586307839
220
-0.0000000000000407
230
0.0251869429734098
  0
LINE
  5
503
330
1F
100
AcDbEntity
  8
slate
100
AcDbLine
 10
1055.960696618622
 20
-82.31237017326114
 30
-979.4330205319258
 11
1055.958115456089
 21
-82.31146017326114
 31
-979.9912326314903
210
0.9996827586307839
220
-0.0000000000000407
230
0.0251869429734098
  0
LINE
  5
504
330
1F
100
AcDbEntity
  8
INST_CTRL
100
AcDbLine
 10
1055.937735462128
 20
-79.65680017326111
 30
-980.0188847136203
 11
1055.938917066697
 21
-79.6200801732611
 31
-980.0213157238303
210
0.9996827586307839
220
-0.0000000000000407
230
0.0251869429734098
  0
LINE
  5
505
330
1F
100
AcDbEntity
  8
INST_CTRL
100
AcDbLine
 10
1055.938917066697
 20
-79.6200801732611
 30
-980.0213157238303
 11
1055.922408960525
 21
-79.62349017326125
 31
-975.8698444941419
210
0.9996827586307839
220
-0.0000000000000407
230
0.0251869429734098
  0
LINE
  5
506
330
1F
100
AcDbEntity
  8
INST_CTRL
100
AcDbLine
 10
1055.922408960525
 20
-79.62349017326125
 30
-975.8698444941419
 11
1055.917778822166
 21
-79.65327017326123
 31
-975.8706913818405
210
0.9996827586307839
220
-0.0000000000000407
230
0.0251869429734098
  0
LINE
  5
507
330
1F
100
AcDbEntity
  8
INST_CTRL
100
AcDbLine
 10
1055.917778822166
 20
-79.65327017326123
 30
-975.8706913818405
 11
1055.937735462128
 21
-79.65680017326111
 31
-980.0188847136203
210
0.9996827586307839
220
-0.0000000000000407
230
0.0251869429734098
  0
LINE
  5
508
330
1F
100
AcDbEntity
  8
INST_CTRL
100
AcDbLine
 10
1055.915935115685
 20
-79.6604601732611
 30
-980.0219247621321
 11
1055.896004075882
 21
-79.65488017326123
 31
-975.8973782873239
210
0.9996827586307839
220
-0.0000000000000407
230
0.0251869429734098
  0
LINE
  5
509
330
1F
100
AcDbEntity
  8
INST_CTRL
100
AcDbLine
 10
1055.896004075882
 20
-79.65488017326123
 30
-975.8973782873239
 11
1055.896567754218
 21
-84.05825017326122
 31
-975.8979142600226
210
0.9996827586307839
220
-0.0000000000000407
230
0.0251869429734098
  0
LINE
  5
50A
330
1F
100
AcDbEntity
  8
INST_CTRL
100
AcDbLine
 10
1055.896567754218
 20
-84.05825017326122
 30
-975.8979142600226
 11
1055.93149858707
 21
-84.0558001732611
 31
-980.0210724954915
210
0.9996827586307839
220
-0.0000000000000407
230
0.0251869429734098
  0
LINE
  5
50B
330
1F
100
AcDbEntity
  8
INST_CTRL
100
AcDbLine
 10
1055.93149858707
 20
-84.0558001732611
 30
-980.0210724954915
 11
1055.915935115685
 21
-79.6604601732611
 31
-980.0219247621321
210
0.9996827586307839
220
-0.0000000000000407
230
0.0251869429734098
  0
LINE
  5
50C
330
1F
100
AcDbEntity
  8
INST_CTRL
100
AcDbLine
 10
1055.931509087637
 20
-84.0557801732611
 30
-980.0210922372775
 11
1055.967683433015
 21
-84.14232017326114
 31
-980.0128685071959
210
0.9996827586307839
220
-0.0000000000000407
230
0.0251869429734098
  0
LINE
  5
50D
330
1F
100
AcDbEntity
  8
INST_CTRL
100
AcDbLine
 10
1055.967683433015
 20
-84.14232017326114
 30
-980.0128685071959
 11
1055.931405547971
 21
-84.15060017326124
 31
-975.8564936621707
210
0.9996827586307839
220
-0.0000000000000407
230
0.0251869429734098
  0
LINE
  5
50E
330
1F
100
AcDbEntity
  8
INST_CTRL
100
AcDbLine
 10
1055.931405547971
 20
-84.15060017326124
 30
-975.8564936621707
 11
1055.928787992198
 21
-84.11863017326124
 31
-975.8609910171459
210
0.9996827586307839
220
-0.0000000000000407
230
0.0251869429734098
  0
LINE
  5
50F
330
1F
100
AcDbEntity
  8
INST_CTRL
100
AcDbLine
 10
1055.928787992198
 20
-84.11863017326124
 30
-975.8609910171459
 11
1055.916588060194
 21
-84.11022017326123
 31
-975.8738523762927
210
0.9996827586307839
220
-0.0000000000000407
230
0.0251869429734098
  0
LINE
  5
510
330
1F
100
AcDbEntity
  8
INST_CTRL
100
AcDbLine
 10
1055.916588060194
 20
-84.11022017326123
 30
-975.8738523762927
 11
1055.911095417812
 21
-84.06565017326121
 31
-975.8861246124242
210
0.9996827586307839
220
-0.0000000000000407
230
0.0251869429734098
  0
LINE
  5
511
330
1F
100
AcDbEntity
  8
INST_CTRL
100
AcDbLine
 10
1055.911095417812
 20
-84.06565017326121
 30
-975.8861246124242
 11
1055.89672380556
 21
-84.06054017326125
 31
-975.8945792715699
210
0.9996827586307839
220
-0.0000000000000407
230
0.0251869429734098
  0
LINE
  5
512
330
1F
100
AcDbEntity
  8
marble
100
AcDbLine
 10
1056.005646301552
 20
-81.00717017326116
 30
-978.710639217588
 11
1056.02711519956
 21
-81.11895017326117
 31
-978.7047666186468
210
0.9996827586307839
220
-0.0000000000000407
230
0.0251869429734098
  0
LINE
  5
513
330
1F
100
AcDbEntity
  8
marble
100
AcDbLine
 10
1056.02711519956
 20
-81.11895017326117
 30
-978.7047666186468
 11
1056.022873695311
 21
-81.17011017326115
 31
-978.7377139014134
210
0.9996827586307839
220
-0.0000000000000407
230
0.0251869429734098
  0
LINE
  5
514
330
1F
100
AcDbEntity
  8
marble
100
AcDbLine
 10
1056.022873695311
 20
-81.17011017326115
 30
-978.7377139014134
 11
1056.020146617405
 21
-81.22943017326116
 31
-978.7739940977484
210
0.9996827586307839
220
-0.0000000000000407
230
0.0251869429734098
  0
LINE
  5
515
330
1F
100
AcDbEntity
  8
marble
100
AcDbLine
 10
1056.020146617405
 20
-81.22943017326116
 30
-978.7739940977484
 11
1056.013046344
 21
-81.28003017326117
 31
-978.8189371897376
210
0.9996827586307839
220
-0.0000000000000407
230
0.0251869429734098
  0
LINE
  5
516
330
1F
100
AcDbEntity
  8
marble
100
AcDbLine
 10
1056.013046344
 20
-81.28003017326117
 30
-978.8189371897376
 11
1056.000646750363
 21
-81.33311017326112
 31
-978.8691354225518
210
0.9996827586307839
220
-0.0000000000000407
230
0.0251869429734098
  0
LINE
  5
517
330
1F
100
AcDbEntity
  8
marble
100
AcDbLine
 10
1056.000646750363
 20
-81.33311017326112
 30
-978.8691354225518
 11
1055.994251483798
 21
-81.37925017326114
 31
-978.9293556040989
210
0.9996827586307839
220
-0.0000000000000407
230
0.0251869429734098
  0
LINE
  5
518
330
1F
100
AcDbEntity
  8
marble
100
AcDbLine
 10
1055.994251483798
 20
-81.37925017326114
 30
-978.9293556040989
 11
1055.991515817606
 21
-81.41937017326114
 31
-978.9946752292545
210
0.9996827586307839
220
-0.0000000000000407
230
0.0251869429734098
  0
LINE
  5
519
330
1F
100
AcDbEntity
  8
marble
100
AcDbLine
 10
1055.991515817606
 20
-81.41937017326114
 30
-978.9946752292545
 11
1055.98605995277
 21
-81.43900017326116
 31
-979.0635945098578
210
0.9996827586307839
220
-0.0000000000000407
230
0.0251869429734098
  0
LINE
  5
51A
330
1F
100
AcDbEntity
  8
marble
100
AcDbLine
 10
1055.98605995277
 20
-81.43900017326116
 30
-979.0635945098578
 11
1055.985429581001
 21
-81.44502017326113
 31
-979.140214694088
210
0.9996827586307839
220
-0.0000000000000407
230
0.0251869429734098
  0
LINE
  5
51B
330
1F
100
AcDbEntity
  8
marble
100
AcDbLine
 10
1055.985429581001
 20
-81.44502017326113
 30
-979.140214694088
 11
1055.979651396216
 21
-81.44392017326115
 31
-979.1582259428119
210
0.9996827586307839
220
-0.0000000000000407
230
0.0251869429734098
  0
LINE
  5
51C
330
1F
100
AcDbEntity
  8
marble
100
AcDbLine
 10
1055.979651396216
 20
-81.44392017326115
 30
-979.1582259428119
 11
1055.990939216396
 21
-81.43749017326115
 31
-979.2151697020447
210
0.9996827586307839
220
-0.0000000000000407
230
0.0251869429734098
  0
LINE
  5
51D
330
1F
100
AcDbEntity
  8
marble
100
AcDbLine
 10
1055.990939216396
 20
-81.43749017326115
 30
-979.2151697020447
 11
1055.993480645577
 21
-81.42057017326115
 31
-979.289439252587
210
0.9996827586307839
220
-0.0000000000000407
230
0.0251869429734098
  0
LINE
  5
51E
330
1F
100
AcDbEntity
  8
marble
100
AcDbLine
 10
1055.993480645577
 20
-81.42057017326115
 30
-979.289439252587
 11
1055.994945638038
 21
-81.37866017326116
 31
-979.3507618079566
210
0.9996827586307839
220
-0.0000000000000407
230
0.0251869429734098
  0
LINE
  5
51F
330
1F
100
AcDbEntity
  8
marble
100
AcDbLine
 10
1055.994945638038
 20
-81.37866017326116
 30
-979.3507618079566
 11
1055.996668743022
 21
-81.33133017326114
 31
-979.4092269557733
210
0.9996827586307839
220
-0.0000000000000407
230
0.0251869429734098
  0
LINE
  5
520
330
1F
100
AcDbEntity
  8
marble
100
AcDbLine
 10
1055.996668743022
 20
-81.33133017326114
 30
-979.4092269557733
 11
1056.015017993815
 21
-81.27739017326112
 31
-979.4566098260466
210
0.9996827586307839
220
-0.0000000000000407
230
0.0251869429734098
  0
LINE
  5
521
330
1F
100
AcDbEntity
  8
marble
100
AcDbLine
 10
1056.015017993815
 20
-81.27739017326112
 30
-979.4566098260466
 11
1056.011670986455
 21
-81.22467017326114
 31
-979.5012382849234
210
0.9996827586307839
220
-0.0000000000000407
230
0.0251869429734098
  0
LINE
  5
522
330
1F
100
AcDbEntity
  8
marble
100
AcDbLine
 10
1056.011670986455
 20
-81.22467017326114
 30
-979.5012382849234
 11
1056.022129124426
 21
-81.16804017326115
 31
-979.5379565249435
210
0.9996827586307839
220
-0.0000000000000407
230
0.0251869429734098
  0
LINE
  5
523
330
1F
100
AcDbEntity
  8
marble
100
AcDbLine
 10
1056.022129124426
 20
-81.16804017326115
 30
-979.5379565249435
 11
1056.028439370599
 21
-81.11462017326113
 31
-979.5724285250775
210
0.9996827586307839
220
-0.0000000000000407
230
0.0251869429734098
  0
LINE
  5
524
330
1F
100
AcDbEntity
  8
marble
100
AcDbLine
 10
1056.028439370599
 20
-81.11462017326113
 30
-979.5724285250775
 11
1056.030719846288
 21
-81.11401017326114
 31
-979.5875058700241
210
0.9996827586307839
220
-0.0000000000000407
230
0.0251869429734098
  0
LINE
  5
525
330
1F
100
AcDbEntity
  8
marble
100
AcDbLine
 10
1056.030719846288
 20
-81.11401017326114
 30
-979.5875058700241
 11
1056.027802631689
 21
-81.01617017326111
 31
-979.5868591405723
210
0.9996827586307839
220
-0.0000000000000407
230
0.0251869429734098
  0
LINE
  5
526
330
1F
100
AcDbEntity
  8
marble
100
AcDbLine
 10
1056.027802631689
 20
-81.01617017326111
 30
-979.5868591405723
 11
1056.02978565
 21
-81.01541017326113
 31
-979.573454942037
210
0.9996827586307839
220
-0.0000000000000407
230
0.0251869429734098
  0
LINE
  5
527
330
1F
100
AcDbEntity
  8
marble
100
AcDbLine
 10
1056.02978565
 20
-81.01541017326113
 30
-979.573454942037
 11
1056.026036060997
 21
-81.05048017326112
 31
-979.5361975631395
210
0.9996827586307839
220
-0.0000000000000407
230
0.0251869429734098
  0
LINE
  5
528
330
1F
100
AcDbEntity
  8
marble
100
AcDbLine
 10
1056.026036060997
 20
-81.05048017326112
 30
-979.5361975631395
 11
1056.02142318261
 21
-81.08621017326113
 31
-979.5012026456088
210
0.9996827586307839
220
-0.0000000000000407
230
0.0251869429734098
  0
LINE
  5
529
330
1F
100
AcDbEntity
  8
marble
100
AcDbLine
 10
1056.02142318261
 20
-81.08621017326113
 30
-979.5012026456088
 11
1056.014082321933
 21
-81.11933017326112
 31
-979.4567934510144
210
0.9996827586307839
220
-0.0000000000000407
230
0.0251869429734098
  0
LINE
  5
52A
330
1F
100
AcDbEntity
  8
marble
100
AcDbLine
 10
1056.014082321933
 20
-81.11933017326112
 30
-979.4567934510144
 11
1055.996930047289
 21
-81.17911017326113
 31
-979.3509118743612
210
0.9996827586307839
220
-0.0000000000000407
230
0.0251869429734098
  0
LINE
  5
52B
330
1F
100
AcDbEntity
  8
marble
100
AcDbLine
 10
1055.996930047289
 20
-81.17911017326113
 30
-979.3509118743612
 11
1055.988616137894
 21
-81.21341017326114
 31
-979.234134229623
210
0.9996827586307839
220
-0.0000000000000407
230
0.0251869429734098
  0
LINE
  5
52C
330
1F
100
AcDbEntity
  8
marble
100
AcDbLine
 10
1055.988616137894
 20
-81.21341017326114
 30
-979.234134229623
 11
1055.99013538035
 21
-81.21549017326115
 31
-979.2134393992936
210
0.9996827586307839
220
-0.0000000000000407
230
0.0251869429734098
  0
LINE
  5
52D
330
1F
100
AcDbEntity
  8
marble
100
AcDbLine
 10
1055.99013538035
 20
-81.21549017326115
 30
-979.2134393992936
 11
1055.985660671413
 21
-81.21792017326114
 31
-979.1410491383471
210
0.9996827586307839
220
-0.0000000000000407
230
0.0251869429734098
  0
LINE
  5
52E
330
1F
100
AcDbEntity
  8
marble
100
AcDbLine
 10
1055.985660671413
 20
-81.21792017326114
 30
-979.1410491383471
 11
1055.990094527214
 21
-81.21485017326113
 31
-979.0653134365763
210
0.9996827586307839
220
-0.0000000000000407
230
0.0251869429734098
  0
LINE
  5
52F
330
1F
100
AcDbEntity
  8
marble
100
AcDbLine
 10
1055.990094527214
 20
-81.21485017326113
 30
-979.0653134365763
 11
1055.998094199532
 21
-81.18074017326113
 31
-978.9302090885975
210
0.9996827586307839
220
-0.0000000000000407
230
0.0251869429734098
  0
LINE
  5
530
330
1F
100
AcDbEntity
  8
marble
100
AcDbLine
 10
1055.998094199532
 20
-81.18074017326113
 30
-978.9302090885975
 11
1056.014106397472
 21
-81.12024017326115
 31
-978.8209111164427
210
0.9996827586307839
220
-0.0000000000000407
230
0.0251869429734098
  0
LINE
  5
531
330
1F
100
AcDbEntity
  8
marble
100
AcDbLine
 10
1056.014106397472
 20
-81.12024017326115
 30
-978.8209111164427
 11
1056.019916727251
 21
-81.05286017326116
 31
-978.7382685543583
210
0.9996827586307839
220
-0.0000000000000407
230
0.0251869429734098
  0
LINE
  5
532
330
1F
100
AcDbEntity
  8
marble
100
AcDbLine
 10
1056.019916727251
 20
-81.05286017326116
 30
-978.7382685543583
 11
1056.021701434218
 21
-81.01519017326117
 31
-978.7229487429678
210
0.9996827586307839
220
-0.0000000000000407
230
0.0251869429734098
  0
LINE
  5
533
330
1F
100
AcDbEntity
  8
marble
100
AcDbLine
 10
1056.021701434218
 20
-81.01519017326117
 30
-978.7229487429678
 11
1056.005646301552
 21
-81.00717017326116
 31
-978.710639217588
210
0.9996827586307839
220
-0.0000000000000407
230
0.0251869429734098
  0
LINE
  5
534
330
1F
100
AcDbEntity
  8
marble
100
AcDbLine
 10
1055.98322547706
 20
-79.73590017326111
 30
-980.0290321784039
 11
1055.998081458115
 21
-79.62137017326114
 31
-979.8051569791814
210
0.9996827586307839
220
-0.0000000000000407
230
0.0251869429734098
  0
LINE
  5
535
330
1F
100
AcDbEntity
  8
marble
100
AcDbLine
 10
1055.998081458115
 20
-79.62137017326114
 30
-979.8051569791814
 11
1055.998450435515
 21
-79.62138017326111
 31
-979.7928037668187
210
0.9996827586307839
220
-0.0000000000000407
230
0.0251869429734098
  0
LINE
  5
536
330
1F
100
AcDbEntity
  8
marble
100
AcDbLine
 10
1055.998450435515
 20
-79.62138017326111
 30
-979.7928037668187
 11
1055.975924734472
 21
-80.99926017326117
 31
-977.6453198496282
210
0.9996827586307839
220
-0.0000000000000407
230
0.0251869429734098
  0
LINE
  5
537
330
1F
100
AcDbEntity
  8
marble
100
AcDbLine
 10
1055.975924734472
 20
-80.99926017326117
 30
-977.6453198496282
 11
1055.976066081836
 21
-80.99911017326119
 31
-977.6255200081912
210
0.9996827586307839
220
-0.0000000000000407
230
0.0251869429734098
  0
LINE
  5
538
330
1F
100
AcDbEntity
  8
marble
100
AcDbLine
 10
1055.976066081836
 20
-80.99911017326119
 30
-977.6255200081912
 11
1055.970477853968
 21
-79.98765017326121
 31
-976.7212238784255
210
0.9996827586307839
220
-0.0000000000000407
230
0.0251869429734098
  0
LINE
  5
539
330
1F
100
AcDbEntity
  8
marble
100
AcDbLine
 10
1055.970477853968
 20
-79.98765017326121
 30
-976.7212238784255
 11
1055.967424234261
 21
-79.98713017326119
 31
-976.7080165998757
210
0.9996827586307839
220
-0.0000000000000407
230
0.0251869429734098
  0
LINE
  5
53A
330
1F
100
AcDbEntity
  8
marble
100
AcDbLine
 10
1055.967424234261
 20
-79.98713017326119
 30
-976.7080165998757
 11
1055.97252296417
 21
-80.5048801732612
 31
-976.7071078901761
210
0.9996827586307839
220
-0.0000000000000407
230
0.0251869429734098
  0
LINE
  5
53B
330
1F
100
AcDbEntity
  8
marble
100
AcDbLine
 10
1055.97252296417
 20
-80.5048801732612
 30
-976.7071078901761
 11
1055.971610907666
 21
-80.50641017326119
 31
-976.7233160039753
210
0.9996827586307839
220
-0.0000000000000407
230
0.0251869429734098
  0
LINE
  5
53C
330
1F
100
AcDbEntity
  8
marble
100
AcDbLine
 10
1055.971610907666
 20
-80.50641017326119
 30
-976.7233160039753
 11
1055.969679617717
 21
-81.0072401732612
 31
-977.0099455780238
210
0.9996827586307839
220
-0.0000000000000407
230
0.0251869429734098
  0
LINE
  5
53D
330
1F
100
AcDbEntity
  8
marble
100
AcDbLine
 10
1055.969679617717
 20
-81.0072401732612
 30
-977.0099455780238
 11
1055.978995855542
 21
-81.0163501732612
 31
-977.5623461747946
210
0.9996827586307839
220
-0.0000000000000407
230
0.0251869429734098
  0
LINE
  5
53E
330
1F
100
AcDbEntity
  8
marble
100
AcDbLine
 10
1055.988231297323
 20
-80.14123017326111
 30
-980.0168922458054
 11
1055.987725957144
 21
-80.14318017326113
 31
-980.0027905001226
210
0.9996827586307839
220
-0.0000000000000407
230
0.0251869429734098
  0
LINE
  5
53F
330
1F
100
AcDbEntity
  8
marble
100
AcDbLine
 10
1055.987725957144
 20
-80.14318017326113
 30
-980.0027905001226
 11
1056.001376962996
 21
-79.92955017326114
 31
-979.8053340316561
210
0.9996827586307839
220
-0.0000000000000407
230
0.0251869429734098
  0
LINE
  5
540
330
1F
100
AcDbEntity
  8
marble
100
AcDbLine
 10
1056.001376962996
 20
-79.92955017326114
 30
-979.8053340316561
 11
1056.001191311339
 21
-79.92891017326113
 31
-979.7939951104792
210
0.9996827586307839
220
-0.0000000000000407
230
0.0251869429734098
  0
LINE
  5
541
330
1F
100
AcDbEntity
  8
marble
100
AcDbLine
 10
1056.001191311339
 20
-79.92891017326113
 30
-979.7939951104792
 11
1055.981181166894
 21
-80.31916017326114
 31
-979.4686759001345
210
0.9996827586307839
220
-0.0000000000000407
230
0.0251869429734098
  0
LINE
  5
542
330
1F
100
AcDbEntity
  8
marble
100
AcDbLine
 10
1055.981181166894
 20
-80.31916017326114
 30
-979.4686759001345
 11
1056.006024999176
 21
-80.33383017326114
 31
-979.4435021738001
210
0.9996827586307839
220
-0.0000000000000407
230
0.0251869429734098
  0
LINE
  5
543
330
1F
100
AcDbEntity
  8
marble
100
AcDbLine
 10
1055.97601755653
 20
-81.01690017326118
 30
-977.5624512223675
 11
1055.971053851266
 21
-80.99897017326117
 31
-977.6227153612067
210
0.9996827586307839
220
-0.0000000000000407
230
0.0251869429734098
  0
LINE
  5
544
330
1F
100
AcDbEntity
  8
marble
100
AcDbLine
 10
1055.971053851266
 20
-80.99897017326117
 30
-977.6227153612067
 11
1056.006407089311
 21
-81.3484401732612
 31
-977.621604568827
210
0.9996827586307839
220
-0.0000000000000407
230
0.0251869429734098
  0
LINE
  5
545
330
1F
100
AcDbEntity
  8
marble
100
AcDbLine
 10
1056.006407089311
 20
-81.3484401732612
 30
-977.621604568827
 11
1056.027601480653
 21
-81.35415017326119
 31
-977.5639424540926
210
0.9996827586307839
220
-0.0000000000000407
230
0.0251869429734098
  0
LINE
  5
546
330
1F
100
AcDbEntity
  8
marble
100
AcDbLine
 10
1056.027601480653
 20
-81.35415017326119
 30
-977.5639424540926
 11
1055.983152364549
 21
-81.0707801732612
 31
-977.1008050651058
210
0.9996827586307839
220
-0.0000000000000407
230
0.0251869429734098
  0
LINE
  5
547
330
1F
100
AcDbEntity
  8
marble
100
AcDbLine
 10
1055.983152364549
 20
-81.0707801732612
 30
-977.1008050651058
 11
1055.978967556068
 21
-81.07051017326119
 31
-977.0899470230181
210
0.9996827586307839
220
-0.0000000000000407
230
0.0251869429734098
  0
LINE
  5
548
330
1F
100
AcDbEntity
  8
marble
100
AcDbLine
 10
1055.978967556068
 20
-81.07051017326119
 30
-977.0899470230181
 11
1055.955172431819
 21
-81.15357017326118
 31
-977.0896462540392
210
0.9996827586307839
220
-0.0000000000000407
230
0.0251869429734098
  0
LINE
  5
549
330
1F
100
AcDbEntity
  8
marble
100
AcDbLine
 10
1055.955172431819
 20
-81.15357017326118
 30
-977.0896462540392
 11
1055.982346720151
 21
-81.84509017326119
 31
-977.4682419229971
210
0.9996827586307839
220
-0.0000000000000407
230
0.0251869429734098
  0
LINE
  5
54A
330
1F
100
AcDbEntity
  8
marble
100
AcDbLine
 10
1055.982346720151
 20
-81.84509017326119
 30
-977.4682419229971
 11
1055.98413169617
 21
-81.84671017326119
 31
-977.485092310548
210
0.9996827586307839
220
-0.0000000000000407
230
0.0251869429734098
  0
LINE
  5
54B
330
1F
100
AcDbEntity
  8
marble
100
AcDbLine
 10
1055.98413169617
 20
-81.84671017326119
 30
-977.485092310548
 11
1056.004003896216
 21
-81.60838017326117
 31
-977.483341235065
210
0.9996827586307839
220
-0.0000000000000407
230
0.0251869429734098
  0
LINE
  5
54C
330
1F
100
AcDbEntity
  8
marble
100
AcDbLine
 10
1056.004003896216
 20
-81.60838017326117
 30
-977.483341235065
 11
1055.996070117298
 21
-81.60487017326119
 31
-977.638530295092
210
0.9996827586307839
220
-0.0000000000000407
230
0.0251869429734098
  0
LINE
  5
54D
330
1F
100
AcDbEntity
  8
marble
100
AcDbLine
 10
1055.996070117298
 20
-81.60487017326119
 30
-977.638530295092
 11
1056.013439860032
 21
-81.44610017326119
 31
-977.640683487454
210
0.9996827586307839
220
-0.0000000000000407
230
0.0251869429734098
  0
LINE
  5
54E
330
1F
100
AcDbEntity
  8
marble
100
AcDbLine
 10
1056.013439860032
 20
-81.44610017326119
 30
-977.640683487454
 11
1055.998807591417
 21
-81.44370017326119
 31
-977.6979501969387
210
0.9996827586307839
220
-0.0000000000000407
230
0.0251869429734098
  0
LINE
  5
54F
330
1F
100
AcDbEntity
  8
marble
100
AcDbLine
 10
1055.998807591417
 20
-81.44370017326119
 30
-977.6979501969387
 11
1056.027342919287
 21
-81.62817017326117
 31
-978.0070895510549
210
0.9996827586307839
220
-0.0000000000000407
230
0.0251869429734098
  0
LINE
  5
550
330
1F
100
AcDbEntity
  8
marble
100
AcDbLine
 10
1056.027342919287
 20
-81.62817017326117
 30
-978.0070895510549
 11
1056.02700225352
 21
-81.63012017326115
 31
-978.0082585022238
210
0.9996827586307839
220
-0.0000000000000407
230
0.0251869429734098
  0
LINE
  5
551
330
1F
100
AcDbEntity
  8
marble
100
AcDbLine
 10
1056.02700225352
 20
-81.63012017326115
 30
-978.0082585022238
 11
1055.996262532131
 21
-81.63026017326117
 31
-977.7025457571033
210
0.9996827586307839
220
-0.0000000000000407
230
0.0251869429734098
  0
LINE
  5
552
330
1F
100
AcDbEntity
  8
marble
100
AcDbLine
 10
1055.996262532131
 20
-81.63026017326117
 30
-977.7025457571033
 11
1055.966095926425
 21
-81.85816017326118
 31
-977.7062367326113
210
0.9996827586307839
220
-0.0000000000000407
230
0.0251869429734098
  0
LINE
  5
553
330
1F
100
AcDbEntity
  8
marble
100
AcDbLine
 10
1055.966095926425
 20
-81.85816017326118
 30
-977.7062367326113
 11
1055.98861963642
 21
-81.85598017326118
 31
-977.9486863442588
210
0.9996827586307839
220
-0.0000000000000407
230
0.0251869429734098
  0
LINE
  5
554
330
1F
100
AcDbEntity
  8
marble
100
AcDbLine
 10
1055.98861963642
 20
-81.85598017326118
 30
-977.9486863442588
 11
1055.985787815615
 21
-81.83970017326117
 31
-978.0284529744429
210
0.9996827586307839
220
-0.0000000000000407
230
0.0251869429734098
  0
LINE
  5
555
330
1F
100
AcDbEntity
  8
marble
100
AcDbLine
 10
1055.985787815615
 20
-81.83970017326117
 30
-978.0284529744429
 11
1056.007400356726
 21
-81.56100017326116
 31
-978.2839696810723
210
0.9996827586307839
220
-0.0000000000000407
230
0.0251869429734098
  0
LINE
  5
556
330
1F
100
AcDbEntity
  8
marble
100
AcDbLine
 10
1056.007400356726
 20
-81.56100017326116
 30
-978.2839696810723
 11
1056.004416522453
 21
-80.62292017326115
 31
-978.2890164357754
210
0.9996827586307839
220
-0.0000000000000407
230
0.0251869429734098
  0
LINE
  5
557
330
1F
100
AcDbEntity
  8
marble
100
AcDbLine
 10
1056.001257235767
 20
-80.56337017326114
 30
-978.341492656177
 11
1055.998937431988
 21
-80.85092017326116
 31
-978.3439118524118
210
0.9996827586307839
220
-0.0000000000000407
230
0.0251869429734098
  0
LINE
  5
558
330
1F
100
AcDbEntity
  8
marble
100
AcDbLine
 10
1055.998937431988
 20
-80.85092017326116
 30
-978.3439118524118
 11
1056.036549938812
 21
-80.85478017326114
 31
-978.9097040010229
210
0.9996827586307839
220
-0.0000000000000407
230
0.0251869429734098
  0
LINE
  5
559
330
1F
100
AcDbEntity
  8
marble
100
AcDbLine
 10
1056.036549938812
 20
-80.85478017326114
 30
-978.9097040010229
 11
1056.043994815277
 21
-80.83091017326115
 31
-978.969755538176
210
0.9996827586307839
220
-0.0000000000000407
230
0.0251869429734098
  0
LINE
  5
55A
330
1F
100
AcDbEntity
  8
marble
100
AcDbLine
 10
1056.043994815277
 20
-80.83091017326115
 30
-978.969755538176
 11
1056.025385760955
 21
-80.63846017326113
 31
-979.1590142840696
210
0.9996827586307839
220
-0.0000000000000407
230
0.0251869429734098
  0
LINE
  5
55B
330
1F
100
AcDbEntity
  8
marble
100
AcDbLine
 10
1056.025385760955
 20
-80.63846017326113
 30
-979.1590142840696
 11
1056.025026864619
 21
-80.04998017326114
 31
-979.1602537167706
210
0.9996827586307839
220
-0.0000000000000407
230
0.0251869429734098
  0
LINE
  5
55C
330
1F
100
AcDbEntity
  8
marble
100
AcDbLine
 10
1056.016699763718
 20
-80.24762017326114
 30
-979.2156610284774
 11
1056.012452818922
 21
-80.24667017326114
 31
-979.3027856355635
210
0.9996827586307839
220
-0.0000000000000407
230
0.0251869429734098
  0
LINE
  5
55D
330
1F
100
AcDbEntity
  8
marble
100
AcDbLine
 10
1056.012452818922
 20
-80.24667017326114
 30
-979.3027856355635
 11
1056.008033439956
 21
-80.27550017326115
 31
-979.3655968725325
210
0.9996827586307839
220
-0.0000000000000407
230
0.0251869429734098
  0
LINE
  5
55E
330
1F
100
AcDbEntity
  8
marble
100
AcDbLine
 10
1056.008033439956
 20
-80.27550017326115
 30
-979.3655968725325
 11
1056.004710959062
 21
-80.33463017326113
 31
-979.4437553507718
210
0.9996827586307839
220
-0.0000000000000407
230
0.0251869429734098
  0
LINE
  5
55F
330
1F
100
AcDbEntity
  8
marble
100
AcDbLine
 10
1056.004710959062
 20
-80.33463017326113
 30
-979.4437553507718
 11
1056.003925191399
 21
-80.33167017326112
 31
-979.4526679693085
210
0.9996827586307839
220
-0.0000000000000407
230
0.0251869429734098
  0
LINE
  5
560
330
1F
100
AcDbEntity
  8
marble
100
AcDbLine
 10
1056.003925191399
 20
-80.33167017326112
 30
-979.4526679693085
 11
1055.998054748221
 21
-79.92773017326112
 31
-979.793774040783
210
0.9996827586307839
220
-0.0000000000000407
230
0.0251869429734098
  0
LINE
  5
561
330
1F
100
AcDbEntity
  8
marble
100
AcDbLine
 10
1055.998054748221
 20
-79.92773017326112
 30
-979.793774040783
 11
1056.00089465064
 21
-79.93114017326113
 31
-979.80167501884
210
0.9996827586307839
220
-0.0000000000000407
230
0.0251869429734098
  0
LINE
  5
562
330
1F
100
AcDbEntity
  8
marble
100
AcDbLine
 10
1055.978232799726
 20
-79.90015017326121
 30
-976.3151597347039
 11
1055.96827661783
 21
-79.96077017326121
 31
-976.3662567105644
210
0.9996827586307839
220
-0.0000000000000407
230
0.0251869429734098
  0
LINE
  5
563
330
1F
100
AcDbEntity
  8
marble
100
AcDbLine
 10
1055.96827661783
 20
-79.96077017326121
 30
-976.3662567105644
 11
1055.978560350261
 21
-80.02851017326122
 31
-976.3146613265917
210
0.9996827586307839
220
-0.0000000000000407
230
0.0251869429734098
  0
LINE
  5
564
330
1F
100
AcDbEntity
  8
marble
100
AcDbLine
 10
1055.978560350261
 20
-80.02851017326122
 30
-976.3146613265917
 11
1055.962303258544
 21
-80.08299017326121
 31
-976.3638163870524
210
0.9996827586307839
220
-0.0000000000000407
230
0.0251869429734098
  0
LINE
  5
565
330
1F
100
AcDbEntity
  8
marble
100
AcDbLine
 10
1055.962303258544
 20
-80.08299017326121
 30
-976.3638163870524
 11
1055.982556022822
 21
-80.18213017326122
 31
-976.3168213730708
210
0.9996827586307839
220
-0.0000000000000407
230
0.0251869429734098
  0
LINE
  5
566
330
1F
100
AcDbEntity
  8
marble
100
AcDbLine
 10
1055.982556022822
 20
-80.18213017326122
 30
-976.3168213730708
 11
1055.969284420339
 21
-80.24100017326123
 31
-976.368141925168
210
0.9996827586307839
220
-0.0000000000000407
230
0.0251869429734098
  0
LINE
  5
567
330
1F
100
AcDbEntity
  8
marble
100
AcDbLine
 10
1055.969284420339
 20
-80.24100017326123
 30
-976.368141925168
 11
1055.978972936694
 21
-80.30911017326122
 31
-976.3183320993217
210
0.9996827586307839
220
-0.0000000000000407
230
0.0251869429734098
  0
LINE
  5
568
330
1F
100
AcDbEntity
  8
marble
100
AcDbLine
 10
1055.978972936694
 20
-80.30911017326122
 30
-976.3183320993217
 11
1055.970774859157
 21
-80.37053017326121
 31
-976.3689346370515
210
0.9996827586307839
220
-0.0000000000000407
230
0.0251869429734098
  0
LINE
  5
569
330
1F
100
AcDbEntity
  8
marble
100
AcDbLine
 10
1055.970774859157
 20
-80.37053017326121
 30
-976.3689346370515
 11
1055.978134540474
 21
-80.4577201732612
 31
-976.3188033654646
210
0.9996827586307839
220
-0.0000000000000407
230
0.0251869429734098
  0
LINE
  5
56A
330
1F
100
AcDbEntity
  8
marble
100
AcDbLine
 10
1055.978134540474
 20
-80.4577201732612
 30
-976.3188033654646
 11
1055.963077997595
 21
-80.51645017326121
 31
-976.3675680639311
210
0.9996827586307839
220
-0.0000000000000407
230
0.0251869429734098
  0
LINE
  5
56B
330
1F
100
AcDbEntity
  8
marble
100
AcDbLine
 10
1055.963077997595
 20
-80.51645017326121
 30
-976.3675680639311
 11
1055.982741860552
 21
-80.59343017326119
 31
-976.3214181506747
210
0.9996827586307839
220
-0.0000000000000407
230
0.0251869429734098
  0
LINE
  5
56C
330
1F
100
AcDbEntity
  8
marble
100
AcDbLine
 10
1055.982741860552
 20
-80.59343017326119
 30
-976.3214181506747
 11
1055.97023340526
 21
-80.65030017326122
 31
-976.3708688882443
210
0.9996827586307839
220
-0.0000000000000407
230
0.0251869429734098
  0
LINE
  5
56D
330
1F
100
AcDbEntity
  8
marble
100
AcDbLine
 10
1055.97023340526
 20
-80.65030017326122
 30
-976.3708688882443
 11
1055.977662229554
 21
-80.81634017326122
 31
-976.3703316084232
210
0.9996827586307839
220
-0.0000000000000407
230
0.0251869429734098
  0
LINE
  5
56E
330
1F
100
AcDbEntity
  8
marble
100
AcDbLine
 10
1055.977662229554
 20
-80.81634017326122
 30
-976.3703316084232
 11
1055.989328885661
 21
-80.81672017326118
 31
-976.6682222642607
210
0.9996827586307839
220
-0.0000000000000407
230
0.0251869429734098
  0
LINE
  5
56F
330
1F
100
AcDbEntity
  8
marble
100
AcDbLine
 10
1055.989328885661
 20
-80.81672017326118
 30
-976.6682222642607
 11
1055.976797361476
 21
-80.64560017326121
 31
-976.6710988076042
210
0.9996827586307839
220
-0.0000000000000407
230
0.0251869429734098
  0
LINE
  5
570
330
1F
100
AcDbEntity
  8
marble
100
AcDbLine
 10
1055.976797361476
 20
-80.64560017326121
 30
-976.6710988076042
 11
1055.978578961774
 21
-79.96400017326121
 31
-976.6667725620749
210
0.9996827586307839
220
-0.0000000000000407
230
0.0251869429734098
  0
LINE
  5
571
330
1F
100
AcDbEntity
  8
marble
100
AcDbLine
 10
1055.978578961774
 20
-79.96400017326121
 30
-976.6667725620749
 11
1055.989125694085
 21
-79.9041701732612
 31
-976.6168810944924
210
0.9996827586307839
220
-0.0000000000000407
230
0.0251869429734098
  0
LINE
  5
572
330
1F
100
AcDbEntity
  8
marble
100
AcDbLine
 10
1055.989125694085
 20
-79.9041701732612
 30
-976.6168810944924
 11
1055.978232799726
 21
-79.90015017326121
 31
-976.3151597347039
210
0.9996827586307839
220
-0.0000000000000407
230
0.0251869429734098
  0
LINE
  5
573
330
1F
100
AcDbEntity
  8
marble
100
AcDbLine
 10
1055.97813085966
 20
-79.9917401732612
 30
-976.2678372896253
 11
1055.974872613434
 21
-80.8423701732612
 31
-976.2703301457243
210
0.9996827586307839
220
-0.0000000000000407
230
0.0251869429734098
  0
LINE
  5
574
330
1F
100
AcDbEntity
  8
marble
100
AcDbLine
 10
1055.974872613434
 20
-80.8423701732612
 30
-976.2703301457243
 11
1055.959994195051
 21
-80.83839017326125
 31
-975.8953859397863
210
0.9996827586307839
220
-0.0000000000000407
230
0.0251869429734098
  0
LINE
  5
575
330
1F
100
AcDbEntity
  8
marble
100
AcDbLine
 10
1055.959994195051
 20
-80.83839017326125
 30
-975.8953859397863
 11
1055.973522295325
 21
-80.09803017326124
 31
-975.9034777753614
210
0.9996827586307839
220
-0.0000000000000407
230
0.0251869429734098
  0
LINE
  5
576
330
1F
100
AcDbEntity
  8
marble
100
AcDbLine
 10
1055.973522295325
 20
-80.09803017326124
 30
-975.9034777753614
 11
1055.97813085966
 21
-79.9917401732612
 31
-976.2678372896253
210
0.9996827586307839
220
-0.0000000000000407
230
0.0251869429734098
  0
LINE
  5
577
330
1F
100
AcDbEntity
  8
marble
100
AcDbLine
 10
1055.985498605812
 20
-80.45811017326119
 30
-977.6882323266898
 11
1055.978279876664
 21
-79.70675017326119
 31
-977.6947262045357
210
0.9996827586307839
220
-0.0000000000000407
230
0.0251869429734098
  0
LINE
  5
578
330
1F
100
AcDbEntity
  8
marble
100
AcDbLine
 10
1055.983848028324
 20
-80.08281017326117
 30
-978.0662038078808
 11
1055.981423915404
 21
-80.07743017326118
 31
-977.3176673971589
210
0.9996827586307839
220
-0.0000000000000407
230
0.0251869429734098
  0
LINE
  5
579
330
1F
100
AcDbEntity
  8
marble
100
AcDbLine
 10
1055.985272663426
 20
-80.24832017326117
 30
-977.8190195085922
 11
1055.979864235542
 21
-80.24172017326117
 31
-977.3514473971401
210
0.9996827586307839
220
-0.0000000000000407
230
0.0251869429734098
  0
POINT
  5
57A
330
1F
100
AcDbEntity
  8
marble
100
AcDbPoint
 10
1055.896877370475
 20
-82.19233017326121
 30
-976.0388411695814
210
0.9996827586307839
220
-0.0000000000000407
230
0.0251869429734098
 50
270.0000000000015
  0
POINT
  5
57B
330
1F
100
AcDbEntity
  8
marble
100
AcDbPoint
 10
1055.89542600327
 20
-82.20030017326124
 30
-975.965354412045
210
0.9996827586307839
220
-0.0000000000000407
230
0.0251869429734098
 50
270.0000000000015
  0
LINE
  5
57C
330
1F
100
AcDbEntity
  8
marks
 62
     3
100
AcDbLine
 10
1055.896116695882
 20
-82.71848017326121
 30
-975.9661672734825
 11
1055.896656350651
 21
-82.76619017326124
 31
-975.9665438006786
210
0.9996827586307839
220
-0.0000000000000407
230
0.0251869429734098
  0
LINE
  5
57D
330
1F
100
AcDbEntity
  8
marks
 62
     3
100
AcDbLine
 10
1055.896656350651
 20
-82.76619017326124
 30
-975.9665438006786
 11
1055.896972996623
 21
-82.76412017326121
 31
-976.0537534918565
210
0.9996827586307839
220
-0.0000000000000407
230
0.0251869429734098
  0
LINE
  5
57E
330
1F
100
AcDbEntity
  8
marks
 62
     3
100
AcDbLine
 10
1055.896972996623
 20
-82.76412017326121
 30
-976.0537534918565
 11
1055.896494893964
 21
-82.70963017326122
 31
-976.0550259374733
210
0.9996827586307839
220
-0.0000000000000407
230
0.0251869429734098
  0
LINE
  5
57F
330
1F
100
AcDbEntity
  8
marks
 62
     3
100
AcDbLine
 10
1055.897786325758
 20
-82.2386801732612
 30
-976.0554635490827
 11
1055.898239883092
 21
-82.2901101732612
 31
-976.0552020423993
210
0.9996827586307839
220
-0.0000000000000407
230
0.0251869429734098
  0
LINE
  5
580
330
1F
100
AcDbEntity
  8
marks
 62
     3
100
AcDbLine
 10
1055.898239883092
 20
-82.2901101732612
 30
-976.0552020423993
 11
1055.897333442313
 21
-82.28790017326122
 31
-975.966816833427
210
0.9996827586307839
220
-0.0000000000000407
230
0.0251869429734098
  0
LINE
  5
581
330
1F
100
AcDbEntity
  8
marks
 62
     3
100
AcDbLine
 10
1055.897333442313
 20
-82.28790017326122
 30
-975.966816833427
 11
1055.895932723074
 21
-82.23998017326122
 31
-975.966011857891
210
0.9996827586307839
220
-0.0000000000000407
230
0.0251869429734098
  0
LINE
  5
582
330
1F
100
AcDbEntity
  8
marks
 62
     3
100
AcDbLine
 10
1055.895932723074
 20
-82.23998017326122
 30
-975.966011857891
 11
1055.897786325758
 21
-82.2386801732612
 31
-976.0554635490827
210
0.9996827586307839
220
-0.0000000000000407
230
0.0251869429734098
  0
LINE
  5
583
330
1F
100
AcDbEntity
  8
sideii
100
AcDbLine
 10
1055.870226258112
 20
-80.96132017326121
 30
-975.8723796211389
 11
1055.867218538152
 21
-79.91024017326123
 31
-975.8792575583763
210
0.0000000000000401
220
1.0
230
0.0000000000000257
  0
LINE
  5
584
330
1F
100
AcDbEntity
  8
sideii
100
AcDbLine
 10
1055.867218538152
 20
-79.91024017326123
 30
-975.8792575583763
 11
1055.699776761665
 21
-79.90931017326122
 31
-975.8749435362656
210
0.0000000000000401
220
1.0
230
0.0000000000000257
  0
LINE
  5
585
330
1F
100
AcDbEntity
  8
sideii
100
AcDbLine
 10
1055.699776761665
 20
-79.90931017326122
 30
-975.8749435362656
 11
1055.703140781317
 21
-80.96199017326123
 31
-975.8663260730788
210
0.0000000000000401
220
1.0
230
0.0000000000000257
  0
LINE
  5
586
330
1F
100
AcDbEntity
  8
sideii
100
AcDbLine
 10
1055.703140781317
 20
-80.96199017326123
 30
-975.8663260730788
 11
1055.870226258112
 21
-80.96132017326121
 31
-975.8723796211389
210
0.0000000000000401
220
1.0
230
0.0000000000000257
  0
LINE
  5
587
330
1F
100
AcDbEntity
  8
sideii
100
AcDbLine
 10
1055.694431223603
 20
-81.12522017326122
 30
-975.870026614177
 11
1055.689033488221
 21
-81.79515017326123
 31
-975.8781251358165
210
0.0000000000000401
220
1.0
230
0.0000000000000257
  0
LINE
  5
588
330
1F
100
AcDbEntity
  8
sideii
100
AcDbLine
 10
1055.689033488221
 20
-81.79515017326123
 30
-975.8781251358165
 11
1055.854664243881
 21
-81.79701017326124
 31
-975.8768630030182
210
0.0000000000000401
220
1.0
230
0.0000000000000257
  0
LINE
  5
589
330
1F
100
AcDbEntity
  8
sideii
100
AcDbLine
 10
1055.854664243881
 20
-81.79701017326124
 30
-975.8768630030182
 11
1055.861177186274
 21
-81.12817017326122
 31
-975.8677660759879
210
0.0000000000000401
220
1.0
230
0.0000000000000257
  0
LINE
  5
58A
330
1F
100
AcDbEntity
  8
sideii
100
AcDbLine
 10
1055.861177186274
 20
-81.12817017326122
 30
-975.8677660759879
 11
1055.694431223603
 21
-81.12522017326122
 31
-975.870026614177
210
0.0000000000000401
220
1.0
230
0.0000000000000257
  0
LINE
  5
58B
330
1F
100
AcDbEntity
  8
sideii
100
AcDbLine
 10
1055.858475637703
 20
-82.40301017326123
 30
-975.8824287713514
 11
1055.861332565405
 21
-82.97286017326124
 31
-975.8866381494652
210
0.0000000000000401
220
1.0
230
0.0000000000000257
  0
LINE
  5
58C
330
1F
100
AcDbEntity
  8
sideii
100
AcDbLine
 10
1055.861332565405
 20
-82.97286017326124
 30
-975.8866381494652
 11
1055.691692122599
 21
-82.97127017326122
 31
-975.8792285229841
210
0.0000000000000401
220
1.0
230
0.0000000000000257
  0
LINE
  5
58D
330
1F
100
AcDbEntity
  8
sideii
100
AcDbLine
 10
1055.691692122599
 20
-82.97127017326122
 30
-975.8792285229841
 11
1055.692404032171
 21
-82.40146017326123
 31
-975.882471621003
210
0.0000000000000401
220
1.0
230
0.0000000000000257
  0
LINE
  5
58E
330
1F
100
AcDbEntity
  8
sideii
100
AcDbLine
 10
1055.692404032171
 20
-82.40146017326123
 30
-975.882471621003
 11
1055.858475637703
 21
-82.40301017326123
 31
-975.8824287713514
210
0.0000000000000401
220
1.0
230
0.0000000000000257
  0
LINE
  5
58F
330
1F
100
AcDbEntity
  8
sideii
100
AcDbLine
 10
1055.580116652765
 20
-80.1833801732612
 30
-975.9455298014882
 11
1055.581902840775
 21
-79.7329601732612
 31
-975.9378123645824
210
0.0000000000000401
220
1.0
230
0.0000000000000257
  0
LINE
  5
590
330
1F
100
AcDbEntity
  8
sideii
100
AcDbLine
 10
1055.581902840775
 20
-79.7329601732612
 30
-975.9378123645824
 11
1054.69496579141
 21
-79.72690017326119
 31
-975.9395721557444
210
0.0000000000000401
220
1.0
230
0.0000000000000257
  0
LINE
  5
591
330
1F
100
AcDbEntity
  8
sideii
100
AcDbLine
 10
1054.69496579141
 20
-79.72690017326119
 30
-975.9395721557444
 11
1054.695114346598
 21
-80.17512017326117
 31
-975.9375277655282
210
0.0000000000000401
220
1.0
230
0.0000000000000257
  0
LINE
  5
592
330
1F
100
AcDbEntity
  8
sideii
100
AcDbLine
 10
1054.695114346598
 20
-80.17512017326117
 30
-975.9375277655282
 11
1055.580116652765
 21
-80.1833801732612
 31
-975.9455298014882
210
0.0000000000000401
220
1.0
230
0.0000000000000257
  0
LINE
  5
593
330
1F
100
AcDbEntity
  8
sideii
100
AcDbLine
 10
1055.472350102063
 20
-80.26094017326121
 30
-975.9367013106928
 11
1055.475159636404
 21
-80.90949017326122
 31
-975.9362504040652
210
-0.0251869429734098
220
-0.0000000000000247
230
0.9996827586307839
  0
LINE
  5
594
330
1F
100
AcDbEntity
  8
sideii
100
AcDbLine
 10
1055.475159636404
 20
-80.90949017326122
 30
-975.9362504040652
 11
1055.093964822866
 21
-80.91142017326118
 31
-975.9392724948277
210
-0.0251869429734098
220
-0.0000000000000247
230
0.9996827586307839
  0
LINE
  5
595
330
1F
100
AcDbEntity
  8
sideii
100
AcDbLine
 10
1055.093964822866
 20
-80.91142017326118
 30
-975.9392724948277
 11
1055.091927892763
 21
-80.26427017326119
 31
-975.9402140975854
210
-0.0251869429734098
220
-0.0000000000000247
230
0.9996827586307839
  0
LINE
  5
596
330
1F
100
AcDbEntity
  8
sideii
100
AcDbLine
 10
1055.091927892763
 20
-80.26427017326119
 30
-975.9402140975854
 11
1055.472350102063
 21
-80.26094017326121
 31
-975.9367013106928
210
-0.0251869429734098
220
-0.0000000000000247
230
0.9996827586307839
  0
LINE
  5
597
330
1F
100
AcDbEntity
  8
sideii
100
AcDbLine
 10
1055.060368891663
 20
-80.87093017326116
 30
-975.9370779774396
 11
1055.061099763525
 21
-81.0207201732612
 31
-975.9363093251634
210
-0.0251869429734098
220
-0.0000000000000247
230
0.9996827586307839
  0
LINE
  5
598
330
1F
100
AcDbEntity
  8
sideii
100
AcDbLine
 10
1055.061099763525
 20
-81.0207201732612
 30
-975.9363093251634
 11
1054.70362180864
 21
-81.01867017326117
 31
-975.9432753119265
210
-0.0251869429734098
220
-0.0000000000000247
230
0.9996827586307839
  0
LINE
  5
599
330
1F
100
AcDbEntity
  8
sideii
100
AcDbLine
 10
1054.70362180864
 20
-81.01867017326117
 30
-975.9432753119265
 11
1054.702050219671
 21
-80.33759017326119
 31
-975.9479963931703
210
-0.0251869429734098
220
-0.0000000000000247
230
0.9996827586307839
  0
LINE
  5
59A
330
1F
100
AcDbEntity
  8
sideii
100
AcDbLine
 10
1054.702050219671
 20
-80.33759017326119
 30
-975.9479963931703
 11
1055.032825190918
 21
-80.34143017326119
 31
-975.9380720344156
210
-0.0251869429734098
220
-0.0000000000000247
230
0.9996827586307839
  0
LINE
  5
59B
330
1F
100
AcDbEntity
  8
sideii
100
AcDbLine
 10
1055.294848632469
 20
-81.05283017326119
 30
-975.9345113353342
 11
1055.30121364327
 21
-81.7380001732612
 31
-975.9306597983036
210
-0.0251869429734098
220
-0.0000000000000247
230
0.9996827586307839
  0
LINE
  5
59C
330
1F
100
AcDbEntity
  8
sideii
100
AcDbLine
 10
1055.30121364327
 20
-81.7380001732612
 30
-975.9306597983036
 11
1054.711179170579
 21
-81.74431017326117
 31
-975.9367228863819
210
-0.0251869429734098
220
-0.0000000000000247
230
0.9996827586307839
  0
LINE
  5
59D
330
1F
100
AcDbEntity
  8
sideii
100
AcDbLine
 10
1054.711179170579
 20
-81.74431017326117
 30
-975.9367228863819
 11
1054.704094754052
 21
-81.05848017326115
 31
-975.9386219236299
210
-0.0251869429734098
220
-0.0000000000000247
230
0.9996827586307839
  0
LINE
  5
59E
330
1F
100
AcDbEntity
  8
sideii
100
AcDbLine
 10
1054.704094754052
 20
-81.05848017326115
 30
-975.9386219236299
 11
1055.294848632469
 21
-81.05283017326119
 31
-975.9345113353342
210
-0.0251869429734098
220
-0.0000000000000247
230
0.9996827586307839
  0
LINE
  5
59F
330
1F
100
AcDbEntity
  8
sideii
100
AcDbLine
 10
1055.340991415851
 20
-81.1757401732612
 30
-975.9368198720439
 11
1055.601323510596
 21
-81.18420017326121
 31
-975.9300507549756
210
-0.0251869429734098
220
-0.0000000000000247
230
0.9996827586307839
  0
LINE
  5
5A0
330
1F
100
AcDbEntity
  8
sideii
100
AcDbLine
 10
1055.601323510596
 20
-81.18420017326121
 30
-975.9300507549756
 11
1055.593203591789
 21
-81.63246017326121
 31
-975.9341265639227
210
-0.0251869429734098
220
-0.0000000000000247
230
0.9996827586307839
  0
LINE
  5
5A1
330
1F
100
AcDbEntity
  8
sideii
100
AcDbLine
 10
1055.593203591789
 20
-81.63246017326121
 30
-975.9341265639227
 11
1055.332446227037
 21
-81.62922017326119
 31
-975.9426769573371
210
-0.0251869429734098
220
-0.0000000000000247
230
0.9996827586307839
  0
LINE
  5
5A2
330
1F
100
AcDbEntity
  8
sideii
100
AcDbLine
 10
1055.332446227037
 20
-81.62922017326119
 30
-975.9426769573371
 11
1055.340991415851
 21
-81.1757401732612
 31
-975.9368198720439
210
-0.0251869429734098
220
-0.0000000000000247
230
0.9996827586307839
  0
LINE
  5
5A3
330
1F
100
AcDbEntity
  8
sideii
100
AcDbLine
 10
1055.355034829244
 20
-81.64695017326119
 30
-975.9550419421861
 11
1055.531669010135
 21
-81.65458017326121
 31
-975.9351167460485
210
-0.0251869429734098
220
-0.0000000000000247
230
0.9996827586307839
  0
LINE
  5
5A4
330
1F
100
AcDbEntity
  8
sideii
100
AcDbLine
 10
1055.531669010135
 20
-81.65458017326121
 30
-975.9351167460485
 11
1055.527802312743
 21
-81.83427017326122
 31
-975.9368846972023
210
-0.0251869429734098
220
-0.0000000000000247
230
0.9996827586307839
  0
LINE
  5
5A5
330
1F
100
AcDbEntity
  8
sideii
100
AcDbLine
 10
1055.527802312743
 20
-81.83427017326122
 30
-975.9368846972023
 11
1055.35602653055
 21
-81.83257017326118
 31
-975.9384216916309
210
-0.0251869429734098
220
-0.0000000000000247
230
0.9996827586307839
  0
LINE
  5
5A6
330
1F
100
AcDbEntity
  8
sideii
100
AcDbLine
 10
1055.35602653055
 20
-81.83257017326118
 30
-975.9384216916309
 11
1055.355034829244
 21
-81.64695017326119
 31
-975.9550419421861
210
-0.0251869429734098
220
-0.0000000000000247
230
0.9996827586307839
  0
LINE
  5
5A7
330
1F
100
AcDbEntity
  8
sideii
100
AcDbLine
 10
1055.188405632571
 20
-81.85998017326118
 30
-975.940894334054
 11
1055.193147919041
 21
-82.08863017326121
 31
-975.9345728849297
210
-0.0251869429734098
220
-0.0000000000000247
230
0.9996827586307839
  0
LINE
  5
5A8
330
1F
100
AcDbEntity
  8
sideii
100
AcDbLine
 10
1055.193147919041
 20
-82.08863017326121
 30
-975.9345728849297
 11
1055.585399253643
 21
-82.08350017326123
 31
-975.9404051231612
210
-0.0251869429734098
220
-0.0000000000000247
230
0.9996827586307839
  0
LINE
  5
5A9
330
1F
100
AcDbEntity
  8
sideii
100
AcDbLine
 10
1055.585399253643
 20
-82.08350017326123
 30
-975.9404051231612
 11
1055.580984086052
 21
-81.85773017326122
 31
-975.9414466581535
210
-0.0251869429734098
220
-0.0000000000000247
230
0.9996827586307839
  0
LINE
  5
5AA
330
1F
100
AcDbEntity
  8
sideii
100
AcDbLine
 10
1055.580984086052
 20
-81.85773017326122
 30
-975.9414466581535
 11
1055.188405632571
 21
-81.85998017326118
 31
-975.940894334054
210
-0.0251869429734098
220
-0.0000000000000247
230
0.9996827586307839
  0
LINE
  5
5AB
330
1F
100
AcDbEntity
  8
sideii
100
AcDbLine
 10
1055.513983116785
 20
-82.10452017326122
 30
-975.9406639594413
 11
1055.516370949199
 21
-82.42986017326121
 31
-975.944915165901
210
-0.0251869429734098
220
-0.0000000000000247
230
0.9996827586307839
  0
LINE
  5
5AC
330
1F
100
AcDbEntity
  8
sideii
100
AcDbLine
 10
1055.516370949199
 20
-82.42986017326121
 30
-975.944915165901
 11
1055.125218012151
 21
-82.43092017326118
 31
-975.9441668752316
210
-0.0251869429734098
220
-0.0000000000000247
230
0.9996827586307839
  0
LINE
  5
5AD
330
1F
100
AcDbEntity
  8
sideii
100
AcDbLine
 10
1055.125218012151
 20
-82.43092017326118
 30
-975.9441668752316
 11
1055.121762900001
 21
-82.10888017326118
 31
-975.9380519590399
210
-0.0251869429734098
220
-0.0000000000000247
230
0.9996827586307839
  0
LINE
  5
5AE
330
1F
100
AcDbEntity
  8
sideii
100
AcDbLine
 10
1055.121762900001
 20
-82.10888017326118
 30
-975.9380519590399
 11
1055.513983116785
 21
-82.10452017326122
 31
-975.9406639594413
210
-0.0251869429734098
220
-0.0000000000000247
230
0.9996827586307839
  0
LINE
  5
5AF
330
1F
100
AcDbEntity
  8
sideii
100
AcDbLine
 10
1054.705267956828
 20
-82.11129017326118
 30
-975.9466749289851
 11
1054.708040076614
 21
-82.48138017326116
 31
-975.942753863838
210
-0.0251869429734098
220
-0.0000000000000247
230
0.9996827586307839
  0
LINE
  5
5B0
330
1F
100
AcDbEntity
  8
sideii
100
AcDbLine
 10
1054.708040076614
 20
-82.48138017326116
 30
-975.942753863838
 11
1054.878513098756
 21
-82.48160017326119
 31
-975.9454910378956
210
-0.0251869429734098
220
-0.0000000000000247
230
0.9996827586307839
  0
LINE
  5
5B1
330
1F
100
AcDbEntity
  8
sideii
100
AcDbLine
 10
1054.878513098756
 20
-82.48160017326119
 30
-975.9454910378956
 11
1054.87719099882
 21
-82.11049017326118
 31
-975.9454243163846
210
-0.0251869429734098
220
-0.0000000000000247
230
0.9996827586307839
  0
LINE
  5
5B2
330
1F
100
AcDbEntity
  8
sideii
100
AcDbLine
 10
1054.87719099882
 20
-82.11049017326118
 30
-975.9454243163846
 11
1054.705267956828
 21
-82.11129017326118
 31
-975.9466749289851
210
-0.0251869429734098
220
-0.0000000000000247
230
0.9996827586307839
  0
LINE
  5
5B3
330
1F
100
AcDbEntity
  8
sideii
100
AcDbLine
 10
1054.659752034967
 20
-83.25704017326117
 30
-975.9497923248803
 11
1055.190164348372
 21
-83.25456017326121
 31
-975.9499529111346
210
-0.0251869429734098
220
-0.0000000000000247
230
0.9996827586307839
  0
LINE
  5
5B4
330
1F
100
AcDbEntity
  8
sideii
100
AcDbLine
 10
1055.190164348372
 20
-83.25456017326121
 30
-975.9499529111346
 11
1055.19188059421
 21
-83.47642017326121
 31
-975.9565317712354
210
-0.0251869429734098
220
-0.0000000000000247
230
0.9996827586307839
  0
LINE
  5
5B5
330
1F
100
AcDbEntity
  8
sideii
100
AcDbLine
 10
1055.19188059421
 20
-83.47642017326121
 30
-975.9565317712354
 11
1054.662668260109
 21
-83.47692017326115
 31
-975.9492086889306
210
-0.0251869429734098
220
-0.0000000000000247
230
0.9996827586307839
  0
LINE
  5
5B6
330
1F
100
AcDbEntity
  8
sideii
100
AcDbLine
 10
1054.662668260109
 20
-83.47692017326115
 30
-975.9492086889306
 11
1054.659752034967
 21
-83.25704017326117
 31
-975.9497923248803
210
-0.0251869429734098
220
-0.0000000000000247
230
0.9996827586307839
  0
LINE
  5
5B7
330
1F
100
AcDbEntity
  8
sideii
100
AcDbLine
 10
1055.070050281076
 20
-83.48364017326119
 30
-975.9918014933996
 11
1055.066645818989
 21
-83.26159017326119
 31
-975.9749919086965
210
-0.0251869429734098
220
-0.0000000000000247
230
0.9996827586307839
  0
LINE
  5
5B8
330
1F
100
AcDbEntity
  8
sideii
100
AcDbLine
 10
1053.792364642746
 20
-79.72003017326113
 30
-975.9413664886402
 11
1053.787790953313
 21
-80.14341017326115
 31
-975.9369102721988
210
-0.0251869429734098
220
-0.0000000000000247
230
0.9996827586307839
  0
LINE
  5
5B9
330
1F
100
AcDbEntity
  8
sideii
100
AcDbLine
 10
1053.787790953313
 20
-80.14341017326115
 30
-975.9369102721988
 11
1053.124446775561
 21
-80.12654017326113
 31
-975.9411292226012
210
-0.0251869429734098
220
-0.0000000000000247
230
0.9996827586307839
  0
LINE
  5
5BA
330
1F
100
AcDbEntity
  8
sideii
100
AcDbLine
 10
1053.124446775561
 20
-80.12654017326113
 30
-975.9411292226012
 11
1053.134512087744
 21
-79.71941017326111
 31
-975.9396252310288
210
-0.0251869429734098
220
-0.0000000000000247
230
0.9996827586307839
  0
LINE
  5
5BB
330
1F
100
AcDbEntity
  8
sideii
100
AcDbLine
 10
1053.134512087744
 20
-79.71941017326111
 30
-975.9396252310288
 11
1053.792364642746
 21
-79.72003017326113
 31
-975.9413664886402
210
-0.0251869429734098
220
-0.0000000000000247
230
0.9996827586307839
  0
LINE
  5
5BC
330
1F
100
AcDbEntity
  8
sideii
100
AcDbLine
 10
1053.282865494844
 20
-80.20167017326111
 30
-975.937097860438
 11
1053.800394416185
 21
-80.19154017326115
 31
-975.9376830746631
210
-0.0251869429734098
220
-0.0000000000000247
230
0.9996827586307839
  0
LINE
  5
5BD
330
1F
100
AcDbEntity
  8
sideii
100
AcDbLine
 10
1053.800394416185
 20
-80.19154017326115
 30
-975.9376830746631
 11
1053.800331088834
 21
-81.05562017326112
 31
-975.9423161394854
210
-0.0251869429734098
220
-0.0000000000000247
230
0.9996827586307839
  0
LINE
  5
5BE
330
1F
100
AcDbEntity
  8
sideii
100
AcDbLine
 10
1053.800331088834
 20
-81.05562017326112
 30
-975.9423161394854
 11
1053.242066654071
 21
-81.0653101732611
 31
-975.950759792644
210
-0.0251869429734098
220
-0.0000000000000247
230
0.9996827586307839
  0
LINE
  5
5BF
330
1F
100
AcDbEntity
  8
sideii
100
AcDbLine
 10
1053.242066654071
 20
-81.0653101732611
 30
-975.950759792644
 11
1053.237720810921
 21
-81.05584017326112
 31
-975.9394656681839
210
-0.0251869429734098
220
-0.0000000000000247
230
0.9996827586307839
  0
LINE
  5
5C0
330
1F
100
AcDbEntity
  8
sideii
100
AcDbLine
 10
1053.237720810921
 20
-81.05584017326112
 30
-975.9394656681839
 11
1053.238906031765
 21
-80.6971001732611
 31
-975.936084743525
210
-0.0251869429734098
220
-0.0000000000000247
230
0.9996827586307839
  0
LINE
  5
5C1
330
1F
100
AcDbEntity
  8
sideii
100
AcDbLine
 10
1053.238906031765
 20
-80.6971001732611
 30
-975.936084743525
 11
1053.269150680953
 21
-80.28981017326112
 31
-975.937873540751
210
-0.0251869429734098
220
-0.0000000000000247
230
0.9996827586307839
  0
LINE
  5
5C2
330
1F
100
AcDbEntity
  8
sideii
100
AcDbLine
 10
1053.269150680953
 20
-80.28981017326112
 30
-975.937873540751
 11
1053.282865494844
 21
-80.20167017326111
 31
-975.937097860438
210
-0.0251869429734098
220
-0.0000000000000247
230
0.9996827586307839
  0
LINE
  5
5C3
330
1F
100
AcDbEntity
  8
sideii
100
AcDbLine
 10
1052.871361709445
 20
-80.23171017326109
 30
-975.936572216058
 11
1053.214055141692
 21
-80.23202017326111
 31
-975.9391416312475
210
-0.0251869429734098
220
-0.0000000000000247
230
0.9996827586307839
  0
LINE
  5
5C4
330
1F
100
AcDbEntity
  8
sideii
100
AcDbLine
 10
1053.214055141692
 20
-80.23202017326111
 30
-975.9391416312475
 11
1053.214679304732
 21
-80.86562017326111
 31
-975.9396960863846
210
-0.0251869429734098
220
-0.0000000000000247
230
0.9996827586307839
  0
LINE
  5
5C5
330
1F
100
AcDbEntity
  8
sideii
100
AcDbLine
 10
1053.214679304732
 20
-80.86562017326111
 30
-975.9396960863846
 11
1052.867095588626
 21
-80.97660017326109
 31
-975.9419413699173
210
-0.0251869429734098
220
-0.0000000000000247
230
0.9996827586307839
  0
LINE
  5
5C6
330
1F
100
AcDbEntity
  8
sideii
100
AcDbLine
 10
1052.867095588626
 20
-80.97660017326109
 30
-975.9419413699173
 11
1052.866180084319
 21
-80.8755301732611
 31
-975.9417343630008
210
-0.0251869429734098
220
-0.0000000000000247
230
0.9996827586307839
  0
LINE
  5
5C7
330
1F
100
AcDbEntity
  8
sideii
100
AcDbLine
 10
1052.870673679273
 20
-81.0061101732611
 30
-975.9430115882699
 11
1053.148958319144
 21
-81.00491017326111
 31
-975.9408817732497
210
-0.0251869429734098
220
-0.0000000000000247
230
0.9996827586307839
  0
LINE
  5
5C8
330
1F
100
AcDbEntity
  8
sideii
100
AcDbLine
 10
1053.148958319144
 20
-81.00491017326111
 30
-975.9408817732497
 11
1053.150037862532
 21
-81.52808017326112
 31
-975.9428352025604
210
-0.0251869429734098
220
-0.0000000000000247
230
0.9996827586307839
  0
LINE
  5
5C9
330
1F
100
AcDbEntity
  8
sideii
100
AcDbLine
 10
1053.150037862532
 20
-81.52808017326112
 30
-975.9428352025604
 11
1052.870898262988
 21
-81.53041017326108
 31
-975.9463669961668
210
-0.0251869429734098
220
-0.0000000000000247
230
0.9996827586307839
  0
LINE
  5
5CA
330
1F
100
AcDbEntity
  8
sideii
100
AcDbLine
 10
1052.870898262988
 20
-81.53041017326108
 30
-975.9463669961668
 11
1052.870673679273
 21
-81.0061101732611
 31
-975.9430115882699
210
-0.0251869429734098
220
-0.0000000000000247
230
0.9996827586307839
  0
LINE
  5
5CB
330
1F
100
AcDbEntity
  8
sideii
100
AcDbLine
 10
1052.920848710345
 20
-81.89936017326109
 30
-975.9453585771856
 11
1053.288638743658
 21
-81.89781017326112
 31
-975.9399333494837
210
-0.0251869429734098
220
-0.0000000000000247
230
0.9996827586307839
  0
LINE
  5
5CC
330
1F
100
AcDbEntity
  8
sideii
100
AcDbLine
 10
1053.288638743658
 20
-81.89781017326112
 30
-975.9399333494837
 11
1053.289923213211
 21
-82.0979701732611
 31
-975.9341391594656
210
-0.0251869429734098
220
-0.0000000000000247
230
0.9996827586307839
  0
LINE
  5
5CD
330
1F
100
AcDbEntity
  8
sideii
100
AcDbLine
 10
1053.289923213211
 20
-82.0979701732611
 30
-975.9341391594656
 11
1052.921813185445
 21
-82.0982501732611
 31
-975.9403627001073
210
-0.0251869429734098
220
-0.0000000000000247
230
0.9996827586307839
  0
LINE
  5
5CE
330
1F
100
AcDbEntity
  8
sideii
100
AcDbLine
 10
1052.921813185445
 20
-82.0982501732611
 30
-975.9403627001073
 11
1052.920848710345
 21
-81.89936017326109
 31
-975.9453585771856
210
-0.0251869429734098
220
-0.0000000000000247
230
0.9996827586307839
  0
LINE
  5
5CF
330
1F
100
AcDbEntity
  8
sideii
100
AcDbLine
 10
1052.926374839207
 20
-82.11051017326111
 30
-975.9407679345512
 11
1053.289373741401
 21
-82.11020017326111
 31
-975.9385343933308
210
-0.0251869429734098
220
-0.0000000000000247
230
0.9996827586307839
  0
LINE
  5
5D0
330
1F
100
AcDbEntity
  8
sideii
100
AcDbLine
 10
1053.289373741401
 20
-82.11020017326111
 30
-975.9385343933308
 11
1053.289424559096
 21
-82.33647017326111
 31
-975.9389632494391
210
-0.0251869429734098
220
-0.0000000000000247
230
0.9996827586307839
  0
LINE
  5
5D1
330
1F
100
AcDbEntity
  8
sideii
100
AcDbLine
 10
1053.289424559096
 20
-82.33647017326111
 30
-975.9389632494391
 11
1052.926413435159
 21
-82.33520017326112
 31
-975.943887952236
210
-0.0251869429734098
220
-0.0000000000000247
230
0.9996827586307839
  0
LINE
  5
5D2
330
1F
100
AcDbEntity
  8
sideii
100
AcDbLine
 10
1052.926413435159
 20
-82.33520017326112
 30
-975.943887952236
 11
1052.926374839207
 21
-82.11051017326111
 31
-975.9407679345512
210
-0.0251869429734098
220
-0.0000000000000247
230
0.9996827586307839
  0
LINE
  5
5D3
330
1F
100
AcDbEntity
  8
sideii
100
AcDbLine
 10
1053.292400843154
 20
-82.34907017326111
 30
-975.9387782272456
 11
1053.37934339055
 21
-82.35141017326112
 31
-975.9385783468522
210
-0.0251869429734098
220
-0.0000000000000247
230
0.9996827586307839
  0
LINE
  5
5D4
330
1F
100
AcDbEntity
  8
sideii
100
AcDbLine
 10
1053.37934339055
 20
-82.35141017326112
 30
-975.9385783468522
 11
1053.383386078877
 21
-82.86323017326111
 31
-975.93704603778
210
-0.0251869429734098
220
-0.0000000000000247
230
0.9996827586307839
  0
LINE
  5
5D5
330
1F
100
AcDbEntity
  8
sideii
100
AcDbLine
 10
1053.383386078877
 20
-82.86323017326111
 30
-975.93704603778
 11
1053.295157448873
 21
-82.89733017326112
 31
-975.9386087430073
210
-0.0251869429734098
220
-0.0000000000000247
230
0.9996827586307839
  0
LINE
  5
5D6
330
1F
100
AcDbEntity
  8
sideii
100
AcDbLine
 10
1053.295157448873
 20
-82.89733017326112
 30
-975.9386087430073
 11
1053.292400843154
 21
-82.34907017326111
 31
-975.9387782272456
210
-0.0251869429734098
220
-0.0000000000000247
230
0.9996827586307839
  0
LINE
  5
5D7
330
1F
100
AcDbEntity
  8
sideii
100
AcDbLine
 10
1053.407326879626
 20
-82.85906017326112
 30
-975.9423347199854
 11
1053.623984387772
 21
-82.79632017326113
 31
-975.939506882576
210
-0.0251869429734098
220
-0.0000000000000247
230
0.9996827586307839
  0
LINE
  5
5D8
330
1F
100
AcDbEntity
  8
sideii
100
AcDbLine
 10
1053.623984387772
 20
-82.79632017326113
 30
-975.939506882576
 11
1053.617775230505
 21
-82.41232017326112
 31
-975.9364423000537
210
-0.0251869429734098
220
-0.0000000000000247
230
0.9996827586307839
  0
LINE
  5
5D9
330
1F
100
AcDbEntity
  8
sideii
100
AcDbLine
 10
1053.617734991325
 20
-82.41228017326113
 30
-975.9364333107038
 11
1053.403295231646
 21
-82.35389017326113
 31
-975.9415260083164
210
-0.0251869429734098
220
-0.0000000000000247
230
0.9996827586307839
  0
LINE
  5
5DA
330
1F
100
AcDbEntity
  8
sideii
100
AcDbLine
 10
1053.403295231646
 20
-82.35389017326113
 30
-975.9415260083164
 11
1053.408776107828
 21
-82.86019017326115
 31
-975.9406976990266
210
-0.0251869429734098
220
-0.0000000000000247
230
0.9996827586307839
  0
LINE
  5
5DB
330
1F
100
AcDbEntity
  8
sideii
100
AcDbLine
 10
1053.404067218154
 20
-82.11294017326114
 30
-975.9439773420009
 11
1053.39964333697
 21
-82.25188017326109
 31
-975.9490403722466
210
-0.0251869429734098
220
-0.0000000000000247
230
0.9996827586307839
  0
LINE
  5
5DC
330
1F
100
AcDbEntity
  8
sideii
100
AcDbLine
 10
1053.39964333697
 20
-82.25188017326109
 30
-975.9490403722466
 11
1053.415900277817
 21
-82.25301017326112
 31
-975.9375972793822
210
-0.0251869429734098
220
-0.0000000000000247
230
0.9996827586307839
  0
LINE
  5
5DD
330
1F
100
AcDbEntity
  8
sideii
100
AcDbLine
 10
1053.415900277817
 20
-82.25301017326112
 30
-975.9375972793822
 11
1053.417651623609
 21
-82.32359017326112
 31
-975.9396138080617
210
-0.0251869429734098
220
-0.0000000000000247
230
0.9996827586307839
  0
LINE
  5
5DE
330
1F
100
AcDbEntity
  8
sideii
100
AcDbLine
 10
1053.417651623609
 20
-82.32359017326112
 30
-975.9396138080617
 11
1053.507108357637
 21
-82.32443017326113
 31
-975.9597970693684
210
-0.0251869429734098
220
-0.0000000000000247
230
0.9996827586307839
  0
LINE
  5
5DF
330
1F
100
AcDbEntity
  8
sideii
100
AcDbLine
 10
1053.507108357637
 20
-82.32443017326113
 30
-975.9597970693684
 11
1053.811403159588
 21
-82.14718017326115
 31
-975.9617134214909
210
-0.0251869429734098
220
-0.0000000000000247
230
0.9996827586307839
  0
LINE
  5
5E0
330
1F
100
AcDbEntity
  8
sideii
100
AcDbLine
 10
1053.811403159588
 20
-82.14718017326115
 30
-975.9617134214909
 11
1053.814257419403
 21
-82.11220017326116
 31
-975.9368336385154
210
-0.0251869429734098
220
-0.0000000000000247
230
0.9996827586307839
  0
LINE
  5
5E1
330
1F
100
AcDbEntity
  8
sideii
100
AcDbLine
 10
1053.814257419403
 20
-82.11220017326116
 30
-975.9368336385154
 11
1053.404067218154
 21
-82.11294017326114
 31
-975.9439773420009
210
-0.0251869429734098
220
-0.0000000000000247
230
0.9996827586307839
  0
LINE
  5
5E2
330
1F
100
AcDbEntity
  8
sideii
100
AcDbLine
 10
1053.810833778778
 20
-82.09739017326114
 30
-975.9383203412001
 11
1053.403947712187
 21
-82.10093017326114
 31
-975.936057839597
210
-0.0251869429734098
220
-0.0000000000000247
230
0.9996827586307839
  0
LINE
  5
5E3
330
1F
100
AcDbEntity
  8
sideii
100
AcDbLine
 10
1053.403947712187
 20
-82.10093017326114
 30
-975.936057839597
 11
1053.406385720679
 21
-81.09471017326113
 31
-975.9387272804731
210
-0.0251869429734098
220
-0.0000000000000247
230
0.9996827586307839
  0
LINE
  5
5E4
330
1F
100
AcDbEntity
  8
sideii
100
AcDbLine
 10
1053.406385720679
 20
-81.09471017326113
 30
-975.9387272804731
 11
1053.813120983278
 21
-81.09185017326115
 31
-975.9417538227532
210
-0.0251869429734098
220
-0.0000000000000247
230
0.9996827586307839
  0
LINE
  5
5E5
330
1F
100
AcDbEntity
  8
sideii
100
AcDbLine
 10
1053.813120983278
 20
-81.09185017326115
 30
-975.9417538227532
 11
1053.810833778778
 21
-82.09739017326114
 31
-975.9383203412001
210
-0.0251869429734098
220
-0.0000000000000247
230
0.9996827586307839
  0
LINE
  5
5E6
330
1F
100
AcDbEntity
  8
sideii
100
AcDbLine
 10
1053.720658237894
 20
-83.24847017326112
 30
-975.9487649008523
 11
1053.720739219993
 21
-83.41516017326114
 31
-975.9488028732073
210
-0.0251869429734098
220
-0.0000000000000247
230
0.9996827586307839
  0
LINE
  5
5E7
330
1F
100
AcDbEntity
  8
sideii
100
AcDbLine
 10
1053.720739219993
 20
-83.41516017326114
 30
-975.9488028732073
 11
1053.398137797721
 21
-83.41614017326111
 31
-975.957971125382
210
-0.0251869429734098
220
-0.0000000000000247
230
0.9996827586307839
  0
LINE
  5
5E8
330
1F
100
AcDbEntity
  8
sideii
100
AcDbLine
 10
1053.398137797721
 20
-83.41614017326111
 30
-975.957971125382
 11
1053.400188694634
 21
-83.2507301732611
 31
-975.9555987169324
210
-0.0251869429734098
220
-0.0000000000000247
230
0.9996827586307839
  0
LINE
  5
5E9
330
1F
100
AcDbEntity
  8
sideii
100
AcDbLine
 10
1053.400188694634
 20
-83.2507301732611
 30
-975.9555987169324
 11
1053.720658237894
 21
-83.24847017326112
 31
-975.9487649008523
210
-0.0251869429734098
220
-0.0000000000000247
230
0.9996827586307839
  0
LINE
  5
5EA
330
1F
100
AcDbEntity
  8
sideii
100
AcDbLine
 10
1053.390147711947
 20
-83.24912017326111
 30
-975.9537010165617
 11
1053.388833689854
 21
-83.41638017326109
 31
-975.9527638154422
210
-0.0251869429734098
220
-0.0000000000000247
230
0.9996827586307839
  0
LINE
  5
5EB
330
1F
100
AcDbEntity
  8
sideii
100
AcDbLine
 10
1052.878255915938
 20
-83.4142101732611
 30
-975.9525336356947
 11
1053.387119986598
 21
-83.4141601732611
 31
-975.9502561828636
210
-0.0251869429734098
220
-0.0000000000000247
230
0.9996827586307839
  0
LINE
  5
5EC
330
1F
100
AcDbEntity
  8
sideii
100
AcDbLine
 10
1053.387119986598
 20
-83.4141601732611
 30
-975.9502561828636
 11
1053.387114949209
 21
-83.24979017326112
 31
-975.9500562463118
210
-0.0251869429734098
220
-0.0000000000000247
230
0.9996827586307839
  0
LINE
  5
5ED
330
1F
100
AcDbEntity
  8
sideii
100
AcDbLine
 10
1053.387114949209
 20
-83.24979017326112
 30
-975.9500562463118
 11
1052.877900233975
 21
-83.24668017326109
 31
-975.9523125240903
210
-0.0251869429734098
220
-0.0000000000000247
230
0.9996827586307839
  0
LINE
  5
5EE
330
1F
100
AcDbEntity
  8
sideii
100
AcDbLine
 10
1052.877900233975
 20
-83.24668017326109
 30
-975.9523125240903
 11
1052.878255915938
 21
-83.4142101732611
 31
-975.9525336356947
210
-0.0251869429734098
220
-0.0000000000000247
230
0.9996827586307839
  0
LINE
  5
5EF
330
1F
100
AcDbEntity
  8
sideii
100
AcDbLine
 10
1052.781033009317
 20
-82.4877701732611
 30
-975.8869415749844
 11
1052.783636538353
 21
-81.87191017326112
 31
-975.8822845226374
210
-0.0251869429734098
220
-0.0000000000000247
230
0.9996827586307839
  0
LINE
  5
5F0
330
1F
100
AcDbEntity
  8
sideii
100
AcDbLine
 10
1052.783636538353
 20
-81.87191017326112
 30
-975.8822845226374
 11
1052.611036830487
 21
-81.87098017326107
 31
-975.8828819711721
210
-0.0251869429734098
220
-0.0000000000000247
230
0.9996827586307839
  0
LINE
  5
5F1
330
1F
100
AcDbEntity
  8
sideii
100
AcDbLine
 10
1052.611036830487
 20
-81.87098017326107
 30
-975.8828819711721
 11
1052.604656677346
 21
-82.48570017326107
 31
-975.893676092067
210
-0.0251869429734098
220
-0.0000000000000247
230
0.9996827586307839
  0
LINE
  5
5F2
330
1F
100
AcDbEntity
  8
sideii
100
AcDbLine
 10
1052.604656677346
 20
-82.48570017326107
 30
-975.893676092067
 11
1052.781033009317
 21
-82.4877701732611
 31
-975.8869415749844
210
-0.0251869429734098
220
-0.0000000000000247
230
0.9996827586307839
  0
LINE
  5
5F3
330
1F
100
AcDbEntity
  8
sideii
100
AcDbLine
 10
1052.609984686804
 20
-81.41998017326107
 30
-975.8855893303413
 11
1052.616001181978
 21
-80.1100401732611
 31
-975.879815961669
210
-0.0251869429734098
220
-0.0000000000000247
230
0.9996827586307839
  0
LINE
  5
5F4
330
1F
100
AcDbEntity
  8
sideii
100
AcDbLine
 10
1052.616001181978
 20
-80.1100401732611
 30
-975.879815961669
 11
1052.784827726114
 21
-80.10913017326108
 31
-975.8787433968675
210
-0.0251869429734098
220
-0.0000000000000247
230
0.9996827586307839
  0
LINE
  5
5F5
330
1F
100
AcDbEntity
  8
sideii
100
AcDbLine
 10
1052.784827726114
 20
-80.10913017326108
 30
-975.8787433968675
 11
1052.788502900482
 21
-81.44596017326112
 31
-975.8816817626314
210
-0.0251869429734098
220
-0.0000000000000247
230
0.9996827586307839
  0
LINE
  5
5F8
330
1F
100
AcDbEntity
  8
sideii
100
AcDbLine
 10
1052.595308911832
 20
-84.00767017326108
 30
-975.8978528587473
 11
1052.603136080412
 21
-84.05568017326109
 31
-975.8817606111719
210
-0.0251869429734098
220
-0.0000000000000247
230
0.9996827586307839
  0
LINE
  5
5FB
330
1F
100
AcDbEntity
  8
sideii
100
AcDbLine
 10
1052.816254111463
 20
-79.62318017326109
 30
-975.8964674851059
 11
1052.817968684318
 21
-79.6244701732611
 31
-975.897024476958
210
-0.0251869429734098
220
-0.0000000000000247
230
0.9996827586307839
  0
LINE
  5
5FD
330
1F
100
AcDbEntity
  8
sideii
100
AcDbLine
 10
1055.673390095857
 20
-79.66837017326122
 30
-975.8920835732416
 11
1055.891959930401
 21
-79.66272017326122
 31
-975.8952794811575
210
-0.0251869429734098
220
-0.0000000000000247
230
0.9996827586307839
  0
LINE
  5
5FE
330
1F
100
AcDbEntity
  8
INST_CTRL
100
AcDbLine
 10
1055.891959930401
 20
-79.66272017326122
 30
-975.8952794811575
 11
1055.893889683985
 21
-84.06141017326124
 31
-975.8932602359758
210
-0.0251869429734098
220
-0.0000000000000247
230
0.9996827586307839
  0
LINE
  5
601
330
1F
100
AcDbEntity
  8
sideii
100
AcDbLine
 10
1055.66681391035
 20
-79.66404017326121
 30
-975.8947000373016
 11
1055.673390095857
 21
-79.66837017326122
 31
-975.8920835732416
210
-0.0251869429734098
220
-0.0000000000000247
230
0.9996827586307839
  0
LINE
  5
602
330
1F
100
AcDbEntity
  8
INST_CTRL
100
AcDbLine
 10
1055.897636113514
 20
-84.06067017326122
 30
-975.8950564447006
 11
1055.906346355174
 21
-84.06376017326122
 31
-975.879472116347
210
-0.0251869429734098
220
-0.0000000000000247
230
0.9996827586307839
  0
LINE
  5
603
330
1F
100
AcDbEntity
  8
INST_CTRL
100
AcDbLine
 10
1055.906346355174
 20
-84.06376017326122
 30
-975.879472116347
 11
1055.916607430252
 21
-84.11403017326122
 31
-975.8706508727708
210
-0.0251869429734098
220
-0.0000000000000247
230
0.9996827586307839
  0
LINE
  5
604
330
1F
100
AcDbEntity
  8
INST_CTRL
100
AcDbLine
 10
1055.916607430252
 20
-84.11403017326122
 30
-975.8706508727708
 11
1055.926440998672
 21
-84.11941017326123
 31
-975.8559785405729
210
-0.0251869429734098
220
-0.0000000000000247
230
0.9996827586307839
  0
LINE
  5
605
330
1F
100
AcDbEntity
  8
INST_CTRL
100
AcDbLine
 10
1055.926440998672
 20
-84.11941017326123
 30
-975.8559785405729
 11
1055.925258560545
 21
-84.15236017326122
 31
-975.8531174149075
210
-0.0251869429734098
220
-0.0000000000000247
230
0.9996827586307839
  0
LINE
  5
607
330
1F
100
AcDbEntity
  8
sideii
100
AcDbLine
 10
1055.627253172106
 20
-84.14805017326122
 30
-975.8634065237625
 11
1055.630496989692
 21
-84.1150301732612
 31
-975.8651053608556
210
-0.0251869429734098
220
-0.0000000000000247
230
0.9996827586307839
  0
LINE
  5
608
330
1F
100
AcDbEntity
  8
sideii
100
AcDbLine
 10
1055.630496989692
 20
-84.1150301732612
 30
-975.8651053608556
 11
1055.640499903634
 21
-84.1120701732612
 31
-975.8845495865452
210
-0.0251869429734098
220
-0.0000000000000247
230
0.9996827586307839
  0
LINE
  5
609
330
1F
100
AcDbEntity
  8
sideii
100
AcDbLine
 10
1055.640499903634
 20
-84.1120701732612
 30
-975.8845495865452
 11
1055.652324183488
 21
-84.06272017326122
 31
-975.8921141688814
210
-0.0251869429734098
220
-0.0000000000000247
230
0.9996827586307839
  0
LINE
  5
60A
330
1F
100
AcDbEntity
  8
sideii
100
AcDbLine
 10
1055.652324183488
 20
-84.06272017326122
 30
-975.8921141688814
 11
1055.663933396605
 21
-84.0603201732612
 31
-975.900274357042
210
-0.0251869429734098
220
-0.0000000000000247
230
0.9996827586307839
  0
LINE
  5
60C
330
1F
100
AcDbEntity
  8
sideii
100
AcDbLine
 10
1054.940986352096
 20
-80.0743501732612
 30
-975.8904400631797
 11
1054.937796038533
 21
-79.66412017326118
 31
-975.9003935750913
210
-0.0251869429734098
220
-0.0000000000000247
230
0.9996827586307839
  0
LINE
  5
60D
330
1F
100
AcDbEntity
  8
sideii
100
AcDbLine
 10
1054.937796038533
 20
-79.66412017326118
 30
-975.9003935750913
 11
1054.952427646252
 21
-79.67049017326118
 31
-975.8923324923131
210
-0.0251869429734098
220
-0.0000000000000247
230
0.9996827586307839
  0
LINE
  5
60E
330
1F
100
AcDbEntity
  8
sideii
100
AcDbLine
 10
1054.952427646252
 20
-79.67049017326118
 30
-975.8923324923131
 11
1055.50247077282
 21
-79.88489017326123
 31
-975.8819552953751
210
-0.0251869429734098
220
-0.0000000000000247
230
0.9996827586307839
  0
LINE
  5
60F
330
1F
100
AcDbEntity
  8
sideii
100
AcDbLine
 10
1055.50247077282
 20
-79.88489017326123
 30
-975.8819552953751
 11
1055.503479726552
 21
-80.07614017326122
 31
-975.8910327626631
210
-0.0251869429734098
220
-0.0000000000000247
230
0.9996827586307839
  0
LINE
  5
610
330
1F
100
AcDbEntity
  8
sideii
100
AcDbLine
 10
1055.503479726552
 20
-80.07614017326122
 30
-975.8910327626631
 11
1054.940986352096
 21
-80.0743501732612
 31
-975.8904400631797
210
-0.0251869429734098
220
-0.0000000000000247
230
0.9996827586307839
  0
LINE
  5
611
330
1F
100
AcDbEntity
  8
sideii
100
AcDbLine
 10
1055.86020625351
 20
-80.10852017326124
 30
-975.8331995648889
 11
1055.708056948636
 21
-80.15258017326122
 31
-975.8275999643291
210
-0.0251869429734098
220
-0.0000000000000247
230
0.9996827586307839
  0
LINE
  5
612
330
1F
100
AcDbEntity
  8
sideii
100
AcDbLine
 10
1055.708056948636
 20
-80.15258017326122
 30
-975.8275999643291
 11
1055.708221257607
 21
-80.8382701732612
 31
-975.8281660054601
210
-0.0251869429734098
220
-0.0000000000000247
230
0.9996827586307839
  0
LINE
  5
613
330
1F
100
AcDbEntity
  8
sideii
100
AcDbLine
 10
1055.708221257607
 20
-80.8382701732612
 30
-975.8281660054601
 11
1055.857987689506
 21
-80.83765017326124
 31
-975.8293142111389
210
-0.0251869429734098
220
-0.0000000000000247
230
0.9996827586307839
  0
LINE
  5
614
330
1F
100
AcDbEntity
  8
sideii
100
AcDbLine
 10
1055.857987689506
 20
-80.83765017326124
 30
-975.8293142111389
 11
1055.86020625351
 21
-80.10852017326124
 31
-975.8331995648889
210
-0.0251869429734098
220
-0.0000000000000247
230
0.9996827586307839
  0
LINE
  5
615
330
1F
100
AcDbEntity
  8
sideii
100
AcDbLine
 10
1055.637789234121
 20
-80.85188017326121
 30
-975.8857482402861
 11
1054.921767801834
 21
-80.8618901732612
 31
-975.8927248445363
210
-0.0251869429734098
220
-0.0000000000000247
230
0.9996827586307839
  0
LINE
  5
616
330
1F
100
AcDbEntity
  8
sideii
100
AcDbLine
 10
1054.921767801834
 20
-80.8618901732612
 30
-975.8927248445363
 11
1054.920614064249
 21
-80.34403017326118
 31
-975.9140306627461
210
-0.0251869429734098
220
-0.0000000000000247
230
0.9996827586307839
  0
LINE
  5
617
330
1F
100
AcDbEntity
  8
sideii
100
AcDbLine
 10
1054.924671649333
 20
-80.3528501732612
 30
-975.8940321202171
 11
1055.636847151512
 21
-80.18914017326123
 31
-975.8876625757736
210
-0.0251869429734098
220
-0.0000000000000247
230
0.9996827586307839
  0
LINE
  5
618
330
1F
100
AcDbEntity
  8
sideii
100
AcDbLine
 10
1055.636847151512
 20
-80.18914017326123
 30
-975.8876625757736
 11
1055.63996841639
 21
-80.84618017326121
 31
-975.8940259793879
210
-0.0251869429734098
220
-0.0000000000000247
230
0.9996827586307839
  0
LINE
  5
619
330
1F
100
AcDbEntity
  8
sideii
100
AcDbLine
 10
1055.514351473104
 20
-81.57731017326122
 30
-975.825058006681
 11
1055.494350879578
 21
-81.57665017326122
 31
-975.8233012031586
210
-0.0251869429734098
220
-0.0000000000000247
230
0.9996827586307839
  0
LINE
  5
61A
330
1F
100
AcDbEntity
  8
sideii
100
AcDbLine
 10
1055.494350879578
 20
-81.57665017326122
 30
-975.8233012031586
 11
1054.972497468249
 21
-81.2475401732612
 31
-975.8825438895012
210
-0.0251869429734098
220
-0.0000000000000247
230
0.9996827586307839
  0
LINE
  5
61B
330
1F
100
AcDbEntity
  8
sideii
100
AcDbLine
 10
1054.972497468249
 20
-81.2475401732612
 30
-975.8825438895012
 11
1054.957001300063
 21
-81.2469001732612
 31
-975.882494174834
210
-0.0251869429734098
220
-0.0000000000000247
230
0.9996827586307839
  0
LINE
  5
61C
330
1F
100
AcDbEntity
  8
sideii
100
AcDbLine
 10
1054.957001300063
 20
-81.2469001732612
 30
-975.882494174834
 11
1054.956764752341
 21
-81.60156017326119
 31
-975.8870015626779
210
-0.0251869429734098
220
-0.0000000000000247
230
0.9996827586307839
  0
LINE
  5
61D
330
1F
100
AcDbEntity
  8
sideii
100
AcDbLine
 10
1054.956764752341
 20
-81.60156017326119
 30
-975.8870015626779
 11
1055.512579533947
 21
-81.6104001732612
 31
-975.8238122412031
210
-0.0251869429734098
220
-0.0000000000000247
230
0.9996827586307839
  0
LINE
  5
61E
330
1F
100
AcDbEntity
  8
sideii
100
AcDbLine
 10
1055.512579533947
 20
-81.6104001732612
 30
-975.8238122412031
 11
1055.514351473104
 21
-81.57731017326122
 31
-975.825058006681
210
-0.0251869429734098
220
-0.0000000000000247
230
0.9996827586307839
  0
LINE
  5
61F
330
1F
100
AcDbEntity
  8
sideii
100
AcDbLine
 10
1055.530901192255
 20
-81.68386017326122
 30
-975.9014654094375
 11
1055.525146083907
 21
-81.81707017326122
 31
-975.9045113293151
210
-0.0251869429734098
220
-0.0000000000000247
230
0.9996827586307839
  0
LINE
  5
620
330
1F
100
AcDbEntity
  8
sideii
100
AcDbLine
 10
1055.525146083907
 20
-81.81707017326122
 30
-975.9045113293151
 11
1055.352949583376
 21
-81.80851017326119
 31
-975.906819164895
210
-0.0251869429734098
220
-0.0000000000000247
230
0.9996827586307839
  0
LINE
  5
621
330
1F
100
AcDbEntity
  8
sideii
100
AcDbLine
 10
1055.352949583376
 20
-81.80851017326119
 30
-975.906819164895
 11
1055.355142504893
 21
-81.68097017326118
 31
-975.9009520706209
210
-0.0251869429734098
220
-0.0000000000000247
230
0.9996827586307839
  0
LINE
  5
622
330
1F
100
AcDbEntity
  8
sideii
100
AcDbLine
 10
1055.355142504893
 20
-81.68097017326118
 30
-975.9009520706209
 11
1055.530901192255
 21
-81.68386017326122
 31
-975.9014654094375
210
-0.0251869429734098
220
-0.0000000000000247
230
0.9996827586307839
  0
LINE
  5
623
330
1F
100
AcDbEntity
  8
sideii
100
AcDbLine
 10
1055.2408363677
 20
-81.88107017326121
 30
-975.8965897088582
 11
1055.559826038506
 21
-81.88358017326121
 31
-975.8957350630815
210
-0.0251869429734098
220
-0.0000000000000247
230
0.9996827586307839
  0
LINE
  5
624
330
1F
100
AcDbEntity
  8
sideii
100
AcDbLine
 10
1055.559826038506
 20
-81.88358017326121
 30
-975.8957350630815
 11
1055.561486033226
 21
-82.08319017326122
 31
-975.9111981584227
210
-0.0251869429734098
220
-0.0000000000000247
230
0.9996827586307839
  0
LINE
  5
625
330
1F
100
AcDbEntity
  8
sideii
100
AcDbLine
 10
1055.561486033226
 20
-82.08319017326122
 30
-975.9111981584227
 11
1055.240356303729
 21
-82.0854001732612
 31
-975.9108863356837
210
-0.0251869429734098
220
-0.0000000000000247
230
0.9996827586307839
  0
LINE
  5
626
330
1F
100
AcDbEntity
  8
sideii
100
AcDbLine
 10
1055.240356303729
 20
-82.0854001732612
 30
-975.9108863356837
 11
1055.2408363677
 21
-81.88107017326121
 31
-975.8965897088582
210
-0.0251869429734098
220
-0.0000000000000247
230
0.9996827586307839
  0
LINE
  5
627
330
1F
100
AcDbEntity
  8
sideii
100
AcDbLine
 10
1055.167466225291
 20
-82.1068001732612
 30
-975.9193448973382
 11
1055.172064388805
 21
-82.22261017326118
 31
-975.8942011070056
210
-0.0251869429734098
220
-0.0000000000000247
230
0.9996827586307839
  0
LINE
  5
628
330
1F
100
AcDbEntity
  8
sideii
100
AcDbLine
 10
1055.172064388805
 20
-82.22261017326118
 30
-975.8942011070056
 11
1055.495433407681
 21
-82.21828017326121
 31
-975.8944565109926
210
-0.0251869429734098
220
-0.0000000000000247
230
0.9996827586307839
  0
LINE
  5
629
330
1F
100
AcDbEntity
  8
sideii
100
AcDbLine
 10
1055.495433407681
 20
-82.21828017326121
 30
-975.8944565109926
 11
1055.493035493785
 21
-82.10452017326119
 31
-975.9179943742969
210
-0.0251869429734098
220
-0.0000000000000247
230
0.9996827586307839
  0
LINE
  5
62A
330
1F
100
AcDbEntity
  8
sideii
100
AcDbLine
 10
1055.493035493785
 20
-82.10452017326119
 30
-975.9179943742969
 11
1055.167466225291
 21
-82.1068001732612
 31
-975.9193448973382
210
-0.0251869429734098
220
-0.0000000000000247
230
0.9996827586307839
  0
LINE
  5
62B
330
1F
100
AcDbEntity
  8
sideii
100
AcDbLine
 10
1055.757545562171
 20
-81.10676017326122
 30
-975.8574929807437
 11
1055.751247267433
 21
-81.2122701732612
 31
-975.8381854903992
210
-0.0251869429734098
220
-0.0000000000000247
230
0.9996827586307839
  0
LINE
  5
62C
330
1F
100
AcDbEntity
  8
sideii
100
AcDbLine
 10
1055.751247267433
 20
-81.2122701732612
 30
-975.8381854903992
 11
1055.686507020335
 21
-81.21530017326122
 31
-975.8421673625257
210
-0.0251869429734098
220
-0.0000000000000247
230
0.9996827586307839
  0
LINE
  5
62D
330
1F
100
AcDbEntity
  8
sideii
100
AcDbLine
 10
1055.686507020335
 20
-81.21530017326122
 30
-975.8421673625257
 11
1055.685132417567
 21
-81.76453017326123
 31
-975.8420019320857
210
-0.0251869429734098
220
-0.0000000000000247
230
0.9996827586307839
  0
LINE
  5
62E
330
1F
100
AcDbEntity
  8
sideii
100
AcDbLine
 10
1055.685132417567
 20
-81.76453017326123
 30
-975.8420019320857
 11
1055.747444796746
 21
-81.76569017326121
 31
-975.8425026325879
210
-0.0251869429734098
220
-0.0000000000000247
230
0.9996827586307839
  0
LINE
  5
62F
330
1F
100
AcDbEntity
  8
sideii
100
AcDbLine
 10
1055.747444796746
 20
-81.76569017326121
 30
-975.8425026325879
 11
1055.751153739639
 21
-81.86987017326121
 31
-975.8455901951572
210
-0.0251869429734098
220
-0.0000000000000247
230
0.9996827586307839
  0
LINE
  5
630
330
1F
100
AcDbEntity
  8
sideii
100
AcDbLine
 10
1055.751153739639
 20
-81.86987017326121
 30
-975.8455901951572
 11
1055.796895348662
 21
-81.86878017326121
 31
-975.8450779413511
210
-0.0251869429734098
220
-0.0000000000000247
230
0.9996827586307839
  0
LINE
  5
631
330
1F
100
AcDbEntity
  8
sideii
100
AcDbLine
 10
1055.796895348662
 20
-81.86878017326121
 30
-975.8450779413511
 11
1055.798898408404
 21
-81.76713017326122
 31
-975.8396157575692
210
-0.0251869429734098
220
-0.0000000000000247
230
0.9996827586307839
  0
LINE
  5
632
330
1F
100
AcDbEntity
  8
sideii
100
AcDbLine
 10
1055.798898408404
 20
-81.76713017326122
 30
-975.8396157575692
 11
1055.868974334616
 21
-81.76438017326123
 31
-975.8425416874377
210
-0.0251869429734098
220
-0.0000000000000247
230
0.9996827586307839
  0
LINE
  5
633
330
1F
100
AcDbEntity
  8
sideii
100
AcDbLine
 10
1055.868974334616
 20
-81.76438017326123
 30
-975.8425416874377
 11
1055.872903027928
 21
-81.21801017326124
 31
-975.8408521996878
210
-0.0251869429734098
220
-0.0000000000000247
230
0.9996827586307839
  0
LINE
  5
634
330
1F
100
AcDbEntity
  8
sideii
100
AcDbLine
 10
1055.872903027928
 20
-81.21801017326124
 30
-975.8408521996878
 11
1055.803948449563
 21
-81.2166801732612
 31
-975.8363775351723
210
-0.0251869429734098
220
-0.0000000000000247
230
0.9996827586307839
  0
LINE
  5
635
330
1F
100
AcDbEntity
  8
sideii
100
AcDbLine
 10
1055.803948449563
 20
-81.2166801732612
 30
-975.8363775351723
 11
1055.800868173187
 21
-81.11249017326121
 31
-975.8415667641557
210
-0.0251869429734098
220
-0.0000000000000247
230
0.9996827586307839
  0
LINE
  5
636
330
1F
100
AcDbEntity
  8
sideii
100
AcDbLine
 10
1055.800868173187
 20
-81.11249017326121
 30
-975.8415667641557
 11
1055.757545562171
 21
-81.10676017326122
 31
-975.8574929807437
210
-0.0251869429734098
220
-0.0000000000000247
230
0.9996827586307839
  0
LINE
  5
637
330
1F
100
AcDbEntity
  8
sideii
100
AcDbLine
 10
1053.628391179133
 20
-81.80614017326112
 30
-975.8813574415651
 11
1053.509496797724
 21
-81.95137017326112
 31
-975.8850632031903
210
-0.0251869429734098
220
-0.0000000000000247
230
0.9996827586307839
  0
LINE
  5
638
330
1F
100
AcDbEntity
  8
sideii
100
AcDbLine
 10
1053.509496797724
 20
-81.95137017326112
 30
-975.8850632031903
 11
1053.430542411248
 21
-82.03208017326113
 31
-975.8835013273282
210
-0.0251869429734098
220
-0.0000000000000247
230
0.9996827586307839
  0
LINE
  5
639
330
1F
100
AcDbEntity
  8
sideii
100
AcDbLine
 10
1053.430542411248
 20
-82.03208017326113
 30
-975.8835013273282
 11
1053.367627865485
 21
-82.06888017326111
 31
-975.8888776579992
210
-0.0251869429734098
220
-0.0000000000000247
230
0.9996827586307839
  0
LINE
  5
63A
330
1F
100
AcDbEntity
  8
sideii
100
AcDbLine
 10
1053.367627865485
 20
-82.06888017326111
 30
-975.8888776579992
 11
1053.276582816849
 21
-82.08205017326111
 31
-975.8850595931992
210
-0.0251869429734098
220
-0.0000000000000247
230
0.9996827586307839
  0
LINE
  5
63B
330
1F
100
AcDbEntity
  8
sideii
100
AcDbLine
 10
1053.276582816849
 20
-82.08205017326111
 30
-975.8850595931992
 11
1053.274811309349
 21
-82.06256017326111
 31
-975.8885953337406
210
-0.0251869429734098
220
-0.0000000000000247
230
0.9996827586307839
  0
LINE
  5
63C
330
1F
100
AcDbEntity
  8
sideii
100
AcDbLine
 10
1053.274811309349
 20
-82.06256017326111
 30
-975.8885953337406
 11
1053.360361509127
 21
-82.00387017326111
 31
-975.8895108761855
210
-0.0251869429734098
220
-0.0000000000000247
230
0.9996827586307839
  0
LINE
  5
63D
330
1F
100
AcDbEntity
  8
sideii
100
AcDbLine
 10
1053.360361509127
 20
-82.00387017326111
 30
-975.8895108761855
 11
1053.433800759311
 21
-81.85814017326114
 31
-975.8853798554484
210
-0.0251869429734098
220
-0.0000000000000247
230
0.9996827586307839
  0
LINE
  5
63E
330
1F
100
AcDbEntity
  8
sideii
100
AcDbLine
 10
1053.433800759311
 20
-81.85814017326114
 30
-975.8853798554484
 11
1053.495038404509
 21
-81.76039017326113
 31
-975.8880883256098
210
-0.0251869429734098
220
-0.0000000000000247
230
0.9996827586307839
  0
LINE
  5
63F
330
1F
100
AcDbEntity
  8
sideii
100
AcDbLine
 10
1053.495038404509
 20
-81.76039017326113
 30
-975.8880883256098
 11
1053.620062196547
 21
-81.63463017326112
 31
-975.8834878990437
210
-0.0251869429734098
220
-0.0000000000000247
230
0.9996827586307839
  0
LINE
  5
640
330
1F
100
AcDbEntity
  8
sideii
100
AcDbLine
 10
1053.659021794544
 20
-81.34264017326115
 30
-975.8861574727701
 11
1053.56900144169
 21
-81.36635017326113
 31
-975.8837040319306
210
-0.0251869429734098
220
-0.0000000000000247
230
0.9996827586307839
  0
LINE
  5
641
330
1F
100
AcDbEntity
  8
sideii
100
AcDbLine
 10
1053.56900144169
 20
-81.36635017326113
 30
-975.8837040319306
 11
1053.498819760072
 21
-81.42324017326112
 31
-975.8857123310589
210
-0.0251869429734098
220
-0.0000000000000247
230
0.9996827586307839
  0
LINE
  5
642
330
1F
100
AcDbEntity
  8
sideii
100
AcDbLine
 10
1053.498819760072
 20
-81.42324017326112
 30
-975.8857123310589
 11
1053.445692354519
 21
-81.51633017326114
 31
-975.8856904410487
210
-0.0251869429734098
220
-0.0000000000000247
230
0.9996827586307839
  0
LINE
  5
643
330
1F
100
AcDbEntity
  8
sideii
100
AcDbLine
 10
1053.445692354519
 20
-81.51633017326114
 30
-975.8856904410487
 11
1053.424192470704
 21
-81.57915017326113
 31
-975.8851717928596
210
-0.0251869429734098
220
-0.0000000000000247
230
0.9996827586307839
  0
LINE
  5
644
330
1F
100
AcDbEntity
  8
sideii
100
AcDbLine
 10
1053.424192470704
 20
-81.57915017326113
 30
-975.8851717928596
 11
1053.379821224577
 21
-81.56250017326113
 31
-975.8884604121915
210
-0.0251869429734098
220
-0.0000000000000247
230
0.9996827586307839
  0
LINE
  5
645
330
1F
100
AcDbEntity
  8
sideii
100
AcDbLine
 10
1053.379821224577
 20
-81.56250017326113
 30
-975.8884604121915
 11
1053.417081415946
 21
-81.43461017326112
 31
-975.8876016694477
210
-0.0251869429734098
220
-0.0000000000000247
230
0.9996827586307839
  0
LINE
  5
646
330
1F
100
AcDbEntity
  8
sideii
100
AcDbLine
 10
1053.417081415946
 20
-81.43461017326112
 30
-975.8876016694477
 11
1053.487784965574
 21
-81.33369017326115
 31
-975.8844698696387
210
-0.0251869429734098
220
-0.0000000000000247
230
0.9996827586307839
  0
LINE
  5
647
330
1F
100
AcDbEntity
  8
sideii
100
AcDbLine
 10
1053.487784965574
 20
-81.33369017326115
 30
-975.8844698696387
 11
1053.573338751453
 21
-81.23325017326113
 31
-975.8871158707336
210
-0.0251869429734098
220
-0.0000000000000247
230
0.9996827586307839
  0
LINE
  5
648
330
1F
100
AcDbEntity
  8
sideii
100
AcDbLine
 10
1053.573338751453
 20
-81.23325017326113
 30
-975.8871158707336
 11
1053.712278367206
 21
-81.11061017326113
 31
-975.8885268541771
210
-0.0251869429734098
220
-0.0000000000000247
230
0.9996827586307839
  0
LINE
  5
649
330
1F
100
AcDbEntity
  8
sideii
100
AcDbLine
 10
1053.712278367206
 20
-81.11061017326113
 30
-975.8885268541771
 11
1053.818794043379
 21
-81.24946017326115
 31
-975.8870135698391
210
-0.0251869429734098
220
-0.0000000000000247
230
0.9996827586307839
  0
LINE
  5
64A
330
1F
100
AcDbEntity
  8
sideii
100
AcDbLine
 10
1053.818794043379
 20
-81.24946017326115
 30
-975.8870135698391
 11
1053.864188126232
 21
-81.36493017326115
 31
-975.8858098497931
210
-0.0251869429734098
220
-0.0000000000000247
230
0.9996827586307839
  0
LINE
  5
64B
330
1F
100
AcDbEntity
  8
sideii
100
AcDbLine
 10
1053.864188126232
 20
-81.36493017326115
 30
-975.8858098497931
 11
1053.882745902283
 21
-81.44620017326113
 31
-975.8874729637549
210
-0.0251869429734098
220
-0.0000000000000247
230
0.9996827586307839
  0
LINE
  5
64C
330
1F
100
AcDbEntity
  8
sideii
100
AcDbLine
 10
1053.882745902283
 20
-81.44620017326113
 30
-975.8874729637549
 11
1053.851874493411
 21
-81.51501017326115
 31
-975.8846296181426
210
-0.0251869429734098
220
-0.0000000000000247
230
0.9996827586307839
  0
LINE
  5
64D
330
1F
100
AcDbEntity
  8
sideii
100
AcDbLine
 10
1053.851874493411
 20
-81.51501017326115
 30
-975.8846296181426
 11
1053.779705613958
 21
-81.59156017326115
 31
-975.8875682638539
210
-0.0251869429734098
220
-0.0000000000000247
230
0.9996827586307839
  0
LINE
  5
64E
330
1F
100
AcDbEntity
  8
sideii
100
AcDbLine
 10
1053.779705613958
 20
-81.59156017326115
 30
-975.8875682638539
 11
1053.761898763354
 21
-81.60536017326114
 31
-975.8867264969412
210
-0.0251869429734098
220
-0.0000000000000247
230
0.9996827586307839
  0
LINE
  5
64F
330
1F
100
AcDbEntity
  8
sideii
100
AcDbLine
 10
1053.761898763354
 20
-81.60536017326114
 30
-975.8867264969412
 11
1053.735663603504
 21
-81.61299017326113
 31
-975.8900283278938
210
-0.0251869429734098
220
-0.0000000000000247
230
0.9996827586307839
  0
LINE
  5
650
330
1F
100
AcDbEntity
  8
sideii
100
AcDbLine
 10
1053.735663603504
 20
-81.61299017326113
 30
-975.8900283278938
 11
1053.648150733196
 21
-81.58396017326111
 31
-975.8902225711894
210
-0.0251869429734098
220
-0.0000000000000247
230
0.9996827586307839
  0
LINE
  5
651
330
1F
100
AcDbEntity
  8
sideii
100
AcDbLine
 10
1053.648150733196
 20
-81.58396017326111
 30
-975.8902225711894
 11
1053.689893239457
 21
-81.45991017326114
 31
-975.8866200621998
210
-0.0251869429734098
220
-0.0000000000000247
230
0.9996827586307839
  0
LINE
  5
652
330
1F
100
AcDbEntity
  8
sideii
100
AcDbLine
 10
1053.689893239457
 20
-81.45991017326114
 30
-975.8866200621998
 11
1053.693148139298
 21
-81.37226017326113
 31
-975.8887587597065
210
-0.0251869429734098
220
-0.0000000000000247
230
0.9996827586307839
  0
LINE
  5
653
330
1F
100
AcDbEntity
  8
sideii
100
AcDbLine
 10
1053.693148139298
 20
-81.37226017326113
 30
-975.8887587597065
 11
1053.682609468066
 21
-81.34467017326114
 31
-975.8889442554648
210
-0.0251869429734098
220
-0.0000000000000247
230
0.9996827586307839
  0
LINE
  5
654
330
1F
100
AcDbEntity
  8
sideii
100
AcDbLine
 10
1053.682609468066
 20
-81.34467017326114
 30
-975.8889442554648
 11
1053.659021794544
 21
-81.34264017326115
 31
-975.8861574727701
210
-0.0251869429734098
220
-0.0000000000000247
230
0.9996827586307839
  0
LINE
  5
655
330
1F
100
AcDbEntity
  8
sideii
100
AcDbLine
 10
1053.18374386864
 20
-81.30846017326112
 30
-975.8711835204291
 11
1053.178153746922
 21
-81.32831017326111
 31
-975.8744253469474
210
-0.0251869429734098
220
-0.0000000000000247
230
0.9996827586307839
  0
LINE
  5
656
330
1F
100
AcDbEntity
  8
sideii
100
AcDbLine
 10
1053.178153746922
 20
-81.32831017326111
 30
-975.8744253469474
 11
1053.055140888375
 21
-81.36157017326111
 31
-975.8806256317877
210
-0.0251869429734098
220
-0.0000000000000247
230
0.9996827586307839
  0
LINE
  5
657
330
1F
100
AcDbEntity
  8
sideii
100
AcDbLine
 10
1053.055140888375
 20
-81.36157017326111
 30
-975.8806256317877
 11
1052.968315831991
 21
-81.36399017326111
 31
-975.8886650399643
210
-0.0251869429734098
220
-0.0000000000000247
230
0.9996827586307839
  0
LINE
  5
658
330
1F
100
AcDbEntity
  8
sideii
100
AcDbLine
 10
1052.968315831991
 20
-81.36399017326111
 30
-975.8886650399643
 11
1052.869025427285
 21
-81.39147017326109
 31
-975.8954580167387
210
-0.0251869429734098
220
-0.0000000000000247
230
0.9996827586307839
  0
LINE
  5
659
330
1F
100
AcDbEntity
  8
sideii
100
AcDbLine
 10
1052.869025427285
 20
-81.39147017326109
 30
-975.8954580167387
 11
1052.864860582285
 21
-81.28044017326109
 31
-975.8921418644312
210
-0.0251869429734098
220
-0.0000000000000247
230
0.9996827586307839
  0
LINE
  5
65A
330
1F
100
AcDbEntity
  8
sideii
100
AcDbLine
 10
1052.864860582285
 20
-81.28044017326109
 30
-975.8921418644312
 11
1052.89932172186
 21
-81.21431017326111
 31
-975.8929441481917
210
-0.0251869429734098
220
-0.0000000000000247
230
0.9996827586307839
  0
LINE
  5
65B
330
1F
100
AcDbEntity
  8
sideii
100
AcDbLine
 10
1052.89932172186
 20
-81.21431017326111
 30
-975.8929441481917
 11
1053.051778194285
 21
-81.3008801732611
 31
-975.8793699294111
210
-0.0251869429734098
220
-0.0000000000000247
230
0.9996827586307839
  0
LINE
  5
65C
330
1F
100
AcDbEntity
  8
sideii
100
AcDbLine
 10
1053.051778194285
 20
-81.3008801732611
 30
-975.8793699294111
 11
1053.116148288873
 21
-81.3084101732611
 31
-975.8765777577172
210
-0.0251869429734098
220
-0.0000000000000247
230
0.9996827586307839
  0
LINE
  5
65D
330
1F
100
AcDbEntity
  8
sideii
100
AcDbLine
 10
1053.116148288873
 20
-81.3084101732611
 30
-975.8765777577172
 11
1053.173072564057
 21
-81.3008101732611
 31
-975.8704720722681
210
-0.0251869429734098
220
-0.0000000000000247
230
0.9996827586307839
  0
LINE
  5
65E
330
1F
100
AcDbEntity
  8
sideii
100
AcDbLine
 10
1053.173072564057
 20
-81.3008101732611
 30
-975.8704720722681
 11
1053.18374386864
 21
-81.30846017326112
 31
-975.8711835204291
210
-0.0251869429734098
220
-0.0000000000000247
230
0.9996827586307839
  0
LINE
  5
65F
330
1F
100
AcDbEntity
  8
sideii
100
AcDbLine
 10
1052.868366302589
 20
-80.8675501732611
 30
-975.8847812309564
 11
1052.859378093049
 21
-80.2494801732611
 31
-975.8885388085367
210
-0.0251869429734098
220
-0.0000000000000247
230
0.9996827586307839
  0
LINE
  5
660
330
1F
100
AcDbEntity
  8
sideii
100
AcDbLine
 10
1052.859378093049
 20
-80.2494801732611
 30
-975.8885388085367
 11
1052.875530597767
 21
-80.25177017326109
 31
-975.883670431871
210
-0.0251869429734098
220
-0.0000000000000247
230
0.9996827586307839
  0
LINE
  5
661
330
1F
100
AcDbEntity
  8
sideii
100
AcDbLine
 10
1052.875530597767
 20
-80.25177017326109
 30
-975.883670431871
 11
1053.180879768317
 21
-80.37120017326111
 31
-975.8801885151173
210
-0.0251869429734098
220
-0.0000000000000247
230
0.9996827586307839
  0
LINE
  5
662
330
1F
100
AcDbEntity
  8
sideii
100
AcDbLine
 10
1053.180879768317
 20
-80.37120017326111
 30
-975.8801885151173
 11
1053.381152541844
 21
-80.40510017326111
 31
-975.8845256321043
210
-0.0251869429734098
220
-0.0000000000000247
230
0.9996827586307839
  0
LINE
  5
663
330
1F
100
AcDbEntity
  8
sideii
100
AcDbLine
 10
1053.381152541844
 20
-80.40510017326111
 30
-975.8845256321043
 11
1053.524267036305
 21
-80.43141017326112
 31
-975.8535211795987
210
-0.0251869429734098
220
-0.0000000000000247
230
0.9996827586307839
  0
LINE
  5
664
330
1F
100
AcDbEntity
  8
sideii
100
AcDbLine
 10
1053.524267036305
 20
-80.43141017326112
 30
-975.8535211795987
 11
1053.520701484648
 21
-80.59706017326112
 31
-975.8731972270012
210
-0.0251869429734098
220
-0.0000000000000247
230
0.9996827586307839
  0
LINE
  5
665
330
1F
100
AcDbEntity
  8
sideii
100
AcDbLine
 10
1053.520701484648
 20
-80.59706017326112
 30
-975.8731972270012
 11
1053.311300071592
 21
-80.64775017326113
 31
-975.8984094067967
210
-0.0251869429734098
220
-0.0000000000000247
230
0.9996827586307839
  0
LINE
  5
666
330
1F
100
AcDbEntity
  8
sideii
100
AcDbLine
 10
1053.311300071592
 20
-80.64775017326113
 30
-975.8984094067967
 11
1053.027342229552
 21
-80.67566017326109
 31
-975.8814260489476
210
-0.0251869429734098
220
-0.0000000000000247
230
0.9996827586307839
  0
LINE
  5
667
330
1F
100
AcDbEntity
  8
sideii
100
AcDbLine
 10
1053.027342229552
 20
-80.67566017326109
 30
-975.8814260489476
 11
1053.028228942794
 21
-80.70917017326109
 31
-975.8800932925462
210
-0.0251869429734098
220
-0.0000000000000247
230
0.9996827586307839
  0
LINE
  5
668
330
1F
100
AcDbEntity
  8
sideii
100
AcDbLine
 10
1053.028228942794
 20
-80.70917017326109
 30
-975.8800932925462
 11
1053.180873225579
 21
-80.7182501732611
 31
-975.8850902349371
210
-0.0251869429734098
220
-0.0000000000000247
230
0.9996827586307839
  0
LINE
  5
669
330
1F
100
AcDbEntity
  8
sideii
100
AcDbLine
 10
1053.180873225579
 20
-80.7182501732611
 30
-975.8850902349371
 11
1053.524186479577
 21
-80.79210017326113
 31
-975.8697783660284
210
-0.0251869429734098
220
-0.0000000000000247
230
0.9996827586307839
  0
LINE
  5
66A
330
1F
100
AcDbEntity
  8
sideii
100
AcDbLine
 10
1053.524186479577
 20
-80.79210017326113
 30
-975.8697783660284
 11
1053.520944725141
 21
-80.86669017326114
 31
-975.8594267319463
210
-0.0251869429734098
220
-0.0000000000000247
230
0.9996827586307839
  0
LINE
  5
66B
330
1F
100
AcDbEntity
  8
sideii
100
AcDbLine
 10
1053.520944725141
 20
-80.86669017326114
 30
-975.8594267319463
 11
1053.240365431972
 21
-80.86995017326112
 31
-975.8840314722441
210
-0.0251869429734098
220
-0.0000000000000247
230
0.9996827586307839
  0
LINE
  5
66C
330
1F
100
AcDbEntity
  8
sideii
100
AcDbLine
 10
1053.240365431972
 20
-80.86995017326112
 30
-975.8840314722441
 11
1053.163258041743
 21
-80.87587017326113
 31
-975.8866944164807
210
-0.0251869429734098
220
-0.0000000000000247
230
0.9996827586307839
  0
LINE
  5
66D
330
1F
100
AcDbEntity
  8
sideii
100
AcDbLine
 10
1053.163258041743
 20
-80.87587017326113
 30
-975.8866944164807
 11
1053.107925703309
 21
-80.8943701732611
 31
-975.8757846078909
210
-0.0251869429734098
220
-0.0000000000000247
230
0.9996827586307839
  0
LINE
  5
66E
330
1F
100
AcDbEntity
  8
sideii
100
AcDbLine
 10
1053.107925703309
 20
-80.8943701732611
 30
-975.8757846078909
 11
1053.031344217288
 21
-80.89217017326109
 31
-975.865970347923
210
-0.0251869429734098
220
-0.0000000000000247
230
0.9996827586307839
  0
LINE
  5
66F
330
1F
100
AcDbEntity
  8
sideii
100
AcDbLine
 10
1053.031344217288
 20
-80.89217017326109
 30
-975.865970347923
 11
1052.868366302589
 21
-80.8675501732611
 31
-975.8847812309564
210
-0.0251869429734098
220
-0.0000000000000247
230
0.9996827586307839
  0
LINE
  5
670
330
1F
100
AcDbEntity
  8
sideii
100
AcDbLine
 10
1053.308209432947
 20
-80.1116901732611
 30
-975.8888942319289
 11
1053.407673286006
 21
-80.12742017326113
 31
-975.8782656697144
210
-0.0251869429734098
220
-0.0000000000000247
230
0.9996827586307839
  0
LINE
  5
671
330
1F
100
AcDbEntity
  8
sideii
100
AcDbLine
 10
1053.407673286006
 20
-80.12742017326113
 30
-975.8782656697144
 11
1053.481615064316
 21
-80.10791017326113
 31
-975.8686702582993
210
-0.0251869429734098
220
-0.0000000000000247
230
0.9996827586307839
  0
LINE
  5
672
330
1F
100
AcDbEntity
  8
sideii
100
AcDbLine
 10
1053.481615064316
 20
-80.10791017326113
 30
-975.8686702582993
 11
1053.700135340512
 21
-79.97636017326112
 31
-975.8714872942446
210
-0.0251869429734098
220
-0.0000000000000247
230
0.9996827586307839
  0
LINE
  5
673
330
1F
100
AcDbEntity
  8
sideii
100
AcDbLine
 10
1053.700135340512
 20
-79.97636017326112
 30
-975.8714872942446
 11
1053.749087273935
 21
-79.95335017326112
 31
-975.8931812269018
210
-0.0251869429734098
220
-0.0000000000000247
230
0.9996827586307839
  0
LINE
  5
674
330
1F
100
AcDbEntity
  8
sideii
100
AcDbLine
 10
1053.749087273935
 20
-79.95335017326112
 30
-975.8931812269018
 11
1053.790888369384
 21
-79.95391017326113
 31
-975.9093735219606
210
-0.0251869429734098
220
-0.0000000000000247
230
0.9996827586307839
  0
LINE
  5
675
330
1F
100
AcDbEntity
  8
sideii
100
AcDbLine
 10
1053.790888369384
 20
-79.95391017326113
 30
-975.9093735219606
 11
1053.791802110605
 21
-79.91107017326115
 31
-975.9095105510837
210
-0.0251869429734098
220
-0.0000000000000247
230
0.9996827586307839
  0
LINE
  5
676
330
1F
100
AcDbEntity
  8
sideii
100
AcDbLine
 10
1053.791802110605
 20
-79.91107017326115
 30
-975.9095105510837
 11
1053.684532535586
 21
-79.90052017326113
 31
-975.8679991746266
210
-0.0251869429734098
220
-0.0000000000000247
230
0.9996827586307839
  0
LINE
  5
677
330
1F
100
AcDbEntity
  8
sideii
100
AcDbLine
 10
1053.684532535586
 20
-79.90052017326113
 30
-975.8679991746266
 11
1053.616790667875
 21
-79.89732017326113
 31
-975.8588524834767
210
-0.0251869429734098
220
-0.0000000000000247
230
0.9996827586307839
  0
LINE
  5
678
330
1F
100
AcDbEntity
  8
sideii
100
AcDbLine
 10
1053.616790667875
 20
-79.89732017326113
 30
-975.8588524834767
 11
1053.466417247833
 21
-79.92684017326112
 31
-975.8657721254289
210
-0.0251869429734098
220
-0.0000000000000247
230
0.9996827586307839
  0
LINE
  5
679
330
1F
100
AcDbEntity
  8
sideii
100
AcDbLine
 10
1053.466417247833
 20
-79.92684017326112
 30
-975.8657721254289
 11
1053.411757688687
 21
-79.95307017326112
 31
-975.8791830871398
210
-0.0251869429734098
220
-0.0000000000000247
230
0.9996827586307839
  0
LINE
  5
67A
330
1F
100
AcDbEntity
  8
sideii
100
AcDbLine
 10
1053.411757688687
 20
-79.95307017326112
 30
-975.8791830871398
 11
1053.317624153821
 21
-79.94643017326112
 31
-975.884595740232
210
-0.0251869429734098
220
-0.0000000000000247
230
0.9996827586307839
  0
LINE
  5
67B
330
1F
100
AcDbEntity
  8
sideii
100
AcDbLine
 10
1053.317624153821
 20
-79.94643017326112
 30
-975.884595740232
 11
1053.308209432947
 21
-80.1116901732611
 31
-975.8888942319289
210
-0.0251869429734098
220
-0.0000000000000247
230
0.9996827586307839
  0
LINE
  5
67C
330
1F
100
AcDbEntity
  8
sideii
100
AcDbLine
 10
1053.632590008067
 20
-80.41094017326114
 30
-975.9038888337899
 11
1053.641216442583
 21
-80.86131017326113
 31
-975.9084029923535
210
-0.0251869429734098
220
-0.0000000000000247
230
0.9996827586307839
  0
LINE
  5
67D
330
1F
100
AcDbEntity
  8
sideii
100
AcDbLine
 10
1053.641216442583
 20
-80.86131017326113
 30
-975.9084029923535
 11
1054.824103533641
 21
-80.87170017326119
 31
-975.9041083201992
210
-0.0251869429734098
220
-0.0000000000000247
230
0.9996827586307839
  0
LINE
  5
67E
330
1F
100
AcDbEntity
  8
sideii
100
AcDbLine
 10
1054.824103533641
 20
-80.87170017326119
 30
-975.9041083201992
 11
1054.811926042323
 21
-80.42344017326119
 31
-975.905155366145
210
-0.0251869429734098
220
-0.0000000000000247
230
0.9996827586307839
  0
LINE
  5
67F
330
1F
100
AcDbEntity
  8
sideii
100
AcDbLine
 10
1054.811926042323
 20
-80.42344017326119
 30
-975.905155366145
 11
1053.632590008067
 21
-80.41094017326114
 31
-975.9038888337899
210
-0.0251869429734098
220
-0.0000000000000247
230
0.9996827586307839
  0
LINE
  5
680
330
1F
100
AcDbEntity
  8
sideii
100
AcDbLine
 10
1054.620839304381
 20
-80.31200017326117
 30
-975.8810906225843
 11
1054.61039447861
 21
-80.30971017326118
 31
-975.8806335508133
210
-0.0251869429734098
220
-0.0000000000000247
230
0.9996827586307839
  0
LINE
  5
681
330
1F
100
AcDbEntity
  8
sideii
100
AcDbLine
 10
1054.61039447861
 20
-80.30971017326118
 30
-975.8806335508133
 11
1054.251534785216
 21
-80.40652017326115
 31
-975.8649171435516
210
-0.0251869429734098
220
-0.0000000000000247
230
0.9996827586307839
  0
LINE
  5
682
330
1F
100
AcDbEntity
  8
sideii
100
AcDbLine
 10
1054.251534785216
 20
-80.40652017326115
 30
-975.8649171435516
 11
1054.240529471175
 21
-80.39801017326116
 31
-975.8751675856332
210
-0.0251869429734098
220
-0.0000000000000247
230
0.9996827586307839
  0
LINE
  5
683
330
1F
100
AcDbEntity
  8
sideii
100
AcDbLine
 10
1054.240529471175
 20
-80.39801017326116
 30
-975.8751675856332
 11
1053.854781777398
 21
-80.30556017326114
 31
-975.8753534497621
210
-0.0251869429734098
220
-0.0000000000000247
230
0.9996827586307839
  0
LINE
  5
684
330
1F
100
AcDbEntity
  8
sideii
100
AcDbLine
 10
1053.854781777398
 20
-80.30556017326114
 30
-975.8753534497621
 11
1053.840504562539
 21
-80.30391017326113
 31
-975.8744527634236
210
-0.0251869429734098
220
-0.0000000000000247
230
0.9996827586307839
  0
LINE
  5
685
330
1F
100
AcDbEntity
  8
sideii
100
AcDbLine
 10
1053.840504562539
 20
-80.30391017326113
 30
-975.8744527634236
 11
1053.84137885623
 21
-80.97807017326113
 31
-975.8722300374978
210
-0.0251869429734098
220
-0.0000000000000247
230
0.9996827586307839
  0
LINE
  5
686
330
1F
100
AcDbEntity
  8
sideii
100
AcDbLine
 10
1053.84137885623
 20
-80.97807017326113
 30
-975.8722300374978
 11
1053.853867862256
 21
-80.97898017326114
 31
-975.8756065487842
210
-0.0251869429734098
220
-0.0000000000000247
230
0.9996827586307839
  0
LINE
  5
687
330
1F
100
AcDbEntity
  8
sideii
100
AcDbLine
 10
1053.853867862256
 20
-80.97898017326114
 30
-975.8756065487842
 11
1054.244867033227
 21
-80.88213017326115
 31
-975.861914131161
210
-0.0251869429734098
220
-0.0000000000000247
230
0.9996827586307839
  0
LINE
  5
688
330
1F
100
AcDbEntity
  8
sideii
100
AcDbLine
 10
1054.244867033227
 20
-80.88213017326115
 30
-975.861914131161
 11
1054.25823404519
 21
-80.88548017326116
 31
-975.8564657285344
210
-0.0251869429734098
220
-0.0000000000000247
230
0.9996827586307839
  0
LINE
  5
689
330
1F
100
AcDbEntity
  8
sideii
100
AcDbLine
 10
1054.25823404519
 20
-80.88548017326116
 30
-975.8564657285344
 11
1054.596736178603
 21
-80.96774017326117
 31
-975.9162088475926
210
-0.0251869429734098
220
-0.0000000000000247
230
0.9996827586307839
  0
LINE
  5
68A
330
1F
100
AcDbEntity
  8
sideii
100
AcDbLine
 10
1054.596736178603
 20
-80.96774017326117
 30
-975.9162088475926
 11
1054.619325477747
 21
-80.98374017326117
 31
-975.8769874495532
210
-0.0251869429734098
220
-0.0000000000000247
230
0.9996827586307839
  0
LINE
  5
68B
330
1F
100
AcDbEntity
  8
sideii
100
AcDbLine
 10
1054.619325477747
 20
-80.98374017326117
 30
-975.8769874495532
 11
1054.620839304381
 21
-80.31200017326117
 31
-975.8810906225843
210
-0.0251869429734098
220
-0.0000000000000247
230
0.9996827586307839
  0
LINE
  5
68C
330
1F
100
AcDbEntity
  8
sideii
 62
     3
100
AcDbLine
 10
1054.727559622579
 20
-82.57188017326118
 30
-975.9627385661213
 11
1054.889225661312
 21
-82.63401017326117
 31
-975.9732500274933
210
-0.0251869429734098
220
-0.0000000000000247
230
0.9996827586307839
  0
LINE
  5
68D
330
1F
100
AcDbEntity
  8
sideii
 62
     3
100
AcDbLine
 10
1054.889225661312
 20
-82.63401017326117
 30
-975.9732500274933
 11
1054.726373412277
 21
-82.63416017326116
 31
-975.9648891253787
210
-0.0251869429734098
220
-0.0000000000000247
230
0.9996827586307839
  0
LINE
  5
68E
330
1F
100
AcDbEntity
  8
sideii
 62
     3
100
AcDbLine
 10
1054.726373412277
 20
-82.63416017326116
 30
-975.9648891253787
 11
1054.976863039355
 21
-82.63362017326119
 31
-975.9668806892324
210
-0.0251869429734098
220
-0.0000000000000247
230
0.9996827586307839
  0
LINE
  5
68F
330
1F
100
AcDbEntity
  8
sideii
 62
     3
100
AcDbLine
 10
1054.976863039355
 20
-82.63362017326119
 30
-975.9668806892324
 11
1054.98001050494
 21
-82.56987017326119
 31
-975.9627701101507
210
-0.0251869429734098
220
-0.0000000000000247
230
0.9996827586307839
  0
LINE
  5
690
330
1F
100
AcDbEntity
  8
sideii
 62
     3
100
AcDbLine
 10
1054.98001050494
 20
-82.56987017326119
 30
-975.9627701101507
 11
1054.727559622579
 21
-82.57188017326118
 31
-975.9627385661213
210
-0.0251869429734098
220
-0.0000000000000247
230
0.9996827586307839
  0
LINE
  5
691
330
1F
100
AcDbEntity
  8
sideii
 62
     3
100
AcDbLine
 10
1055.27029719084
 20
-83.3840801732612
 30
-975.9621584819132
 11
1055.270645916429
 21
-83.32495017326122
 31
-975.9613094292271
210
-0.0251869429734098
220
-0.0000000000000247
230
0.9996827586307839
  0
LINE
  5
692
330
1F
100
AcDbEntity
  8
sideii
 62
     3
100
AcDbLine
 10
1055.270645916429
 20
-83.32495017326122
 30
-975.9613094292271
 11
1055.581763730061
 21
-83.32310017326122
 31
-975.9652445709868
210
-0.0251869429734098
220
-0.0000000000000247
230
0.9996827586307839
  0
LINE
  5
693
330
1F
100
AcDbEntity
  8
sideii
 62
     3
100
AcDbLine
 10
1055.581763730061
 20
-83.32310017326122
 30
-975.9652445709868
 11
1055.581405217606
 21
-83.38124017326123
 31
-975.9633229912152
210
-0.0251869429734098
220
-0.0000000000000247
230
0.9996827586307839
  0
LINE
  5
694
330
1F
100
AcDbEntity
  8
sideii
 62
     3
100
AcDbLine
 10
1055.581405217606
 20
-83.38124017326123
 30
-975.9633229912152
 11
1055.27029719084
 21
-83.3840801732612
 31
-975.9621584819132
210
-0.0251869429734098
220
-0.0000000000000247
230
0.9996827586307839
  0
LINE
  5
695
330
1F
100
AcDbEntity
  8
sideii
 62
     3
100
AcDbLine
 10
1052.987537954103
 20
-82.8798401732611
 30
-975.977839183198
 11
1053.175981290529
 21
-82.8800301732611
 31
-975.9712307751694
210
-0.0251869429734098
220
-0.0000000000000247
230
0.9996827586307839
  0
LINE
  5
696
330
1F
100
AcDbEntity
  8
sideii
 62
     3
100
AcDbLine
 10
1053.175981290529
 20
-82.8800301732611
 30
-975.9712307751694
 11
1053.174489004808
 21
-82.81895017326112
 31
-975.9648063231827
210
-0.0251869429734098
220
-0.0000000000000247
230
0.9996827586307839
  0
LINE
  5
697
330
1F
100
AcDbEntity
  8
sideii
 62
     3
100
AcDbLine
 10
1053.174489004808
 20
-82.81895017326112
 30
-975.9648063231827
 11
1052.987537954103
 21
-82.8798401732611
 31
-975.977839183198
210
-0.0251869429734098
220
-0.0000000000000247
230
0.9996827586307839
  0
LINE
  5
698
330
1F
100
AcDbEntity
  8
sideii
 62
     3
100
AcDbLine
 10
1053.191247603763
 20
-82.60957017326111
 30
-975.9665247704692
 11
1053.179129134128
 21
-82.5478201732611
 31
-975.9587975462777
210
-0.0251869429734098
220
-0.0000000000000247
230
0.9996827586307839
  0
LINE
  5
699
330
1F
100
AcDbEntity
  8
sideii
 62
     3
100
AcDbLine
 10
1053.179129134128
 20
-82.5478201732611
 30
-975.9587975462777
 11
1052.946446345502
 21
-82.54751017326109
 31
-975.9639997647644
210
-0.0251869429734098
220
-0.0000000000000247
230
0.9996827586307839
  0
LINE
  5
69A
330
1F
100
AcDbEntity
  8
sideii
 62
     3
100
AcDbLine
 10
1052.946446345502
 20
-82.54751017326109
 30
-975.9639997647644
 11
1052.947017442042
 21
-82.6062801732611
 31
-975.9628450142539
210
-0.0251869429734098
220
-0.0000000000000247
230
0.9996827586307839
  0
LINE
  5
69B
330
1F
100
AcDbEntity
  8
sideii
 62
     3
100
AcDbLine
 10
1052.947017442042
 20
-82.6062801732611
 30
-975.9628450142539
 11
1053.191247603763
 21
-82.60957017326111
 31
-975.9665247704692
210
-0.0251869429734098
220
-0.0000000000000247
230
0.9996827586307839
  0
LINE
  5
69C
330
1F
100
AcDbEntity
  8
sideii
 62
     3
100
AcDbLine
 10
1052.950726384935
 20
-82.88195017326112
 30
-975.9659325768234
 11
1052.973443794678
 21
-82.8211901732611
 31
-975.9711020346856
210
-0.0251869429734098
220
-0.0000000000000247
230
0.9996827586307839
  0
LINE
  5
69D
330
1F
100
AcDbEntity
  8
sideii
 62
     3
100
AcDbLine
 10
1052.973443794678
 20
-82.8211901732611
 30
-975.9711020346856
 11
1053.172854946354
 21
-82.81731017326112
 31
-975.9618865538483
210
-0.0251869429734098
220
-0.0000000000000247
230
0.9996827586307839
  0
LINE
  5
69E
330
1F
100
AcDbEntity
  8
sideii
100
AcDbLine
 10
1052.784781215344
 20
-80.8652701732611
 30
-975.8324298757669
 11
1052.610877344334
 21
-80.82831017326109
 31
-975.8300992432758
210
-0.0251869429734098
220
-0.0000000000000247
230
0.9996827586307839
  0
LINE
  5
69F
330
1F
100
AcDbEntity
  8
sideii
100
AcDbLine
 10
1052.610877344334
 20
-80.82831017326109
 30
-975.8300992432758
 11
1052.61771465893
 21
-80.21716017326108
 31
-975.8195836962563
210
-0.0251869429734098
220
-0.0000000000000247
230
0.9996827586307839
  0
LINE
  5
6A0
330
1F
100
AcDbEntity
  8
sideii
100
AcDbLine
 10
1052.61771465893
 20
-80.21716017326108
 30
-975.8195836962563
 11
1052.786187865458
 21
-80.23608017326109
 31
-975.8354554063741
210
-0.0251869429734098
220
-0.0000000000000247
230
0.9996827586307839
  0
LINE
  5
6A1
330
1F
100
AcDbEntity
  8
sideii
100
AcDbLine
 10
1052.786187865458
 20
-80.23608017326109
 30
-975.8354554063741
 11
1052.784781215344
 21
-80.8652701732611
 31
-975.8324298757669
210
-0.0251869429734098
220
-0.0000000000000247
230
0.9996827586307839
  0
LINE
  5
6A2
330
1F
100
AcDbEntity
  8
sideii
100
AcDbLine
 10
1052.780572461246
 20
-80.33046017326109
 30
-975.8218125131497
 11
1052.612705774744
 21
-80.28581017326109
 31
-975.8121474956663
210
-0.0251869429734098
220
-0.0000000000000247
230
0.9996827586307839
  0
LINE
  5
6A3
330
1F
100
AcDbEntity
  8
sideii
100
AcDbLine
 10
1052.699722221302
 20
-80.92133017326109
 30
-975.8359233600769
 11
1052.686336217295
 21
-80.92118017326109
 31
-975.8362506164157
210
-0.0251869429734098
220
-0.0000000000000247
230
0.9996827586307839
  0
LINE
  5
6A4
330
1F
100
AcDbEntity
  8
sideii
100
AcDbLine
 10
1052.686336217295
 20
-80.92118017326109
 30
-975.8362506164157
 11
1052.601343225197
 21
-80.97111017326108
 31
-975.8360112541252
210
-0.0251869429734098
220
-0.0000000000000247
230
0.9996827586307839
  0
LINE
  5
6A5
330
1F
100
AcDbEntity
  8
sideii
100
AcDbLine
 10
1052.601343225197
 20
-80.97111017326108
 30
-975.8360112541252
 11
1052.580670367437
 21
-81.03774017326108
 31
-975.836952238734
210
-0.0251869429734098
220
-0.0000000000000247
230
0.9996827586307839
  0
LINE
  5
6A6
330
1F
100
AcDbEntity
  8
sideii
100
AcDbLine
 10
1052.580670367437
 20
-81.03774017326108
 30
-975.836952238734
 11
1052.548682995947
 21
-81.22980017326108
 31
-975.83507730803
210
-0.0251869429734098
220
-0.0000000000000247
230
0.9996827586307839
  0
LINE
  5
6A7
330
1F
100
AcDbEntity
  8
sideii
100
AcDbLine
 10
1052.548682995947
 20
-81.22980017326108
 30
-975.83507730803
 11
1052.547902625666
 21
-81.3441101732611
 31
-975.8370575913996
210
-0.0251869429734098
220
-0.0000000000000247
230
0.9996827586307839
  0
LINE
  5
6A8
330
1F
100
AcDbEntity
  8
sideii
100
AcDbLine
 10
1052.547902625666
 20
-81.3441101732611
 30
-975.8370575913996
 11
1052.606303606706
 21
-81.61359017326109
 31
-975.8343757984446
210
-0.0251869429734098
220
-0.0000000000000247
230
0.9996827586307839
  0
LINE
  5
6A9
330
1F
100
AcDbEntity
  8
sideii
100
AcDbLine
 10
1052.606303606706
 20
-81.61359017326109
 30
-975.8343757984446
 11
1052.692240258425
 21
-81.67856017326107
 31
-975.8395129466146
210
-0.0251869429734098
220
-0.0000000000000247
230
0.9996827586307839
  0
LINE
  5
6AA
330
1F
100
AcDbEntity
  8
sideii
100
AcDbLine
 10
1052.692240258425
 20
-81.67856017326107
 30
-975.8395129466146
 11
1052.704257800501
 21
-81.67801017326111
 31
-975.8384699305798
210
-0.0251869429734098
220
-0.0000000000000247
230
0.9996827586307839
  0
LINE
  5
6AB
330
1F
100
AcDbEntity
  8
sideii
100
AcDbLine
 10
1052.704257800501
 20
-81.67801017326111
 30
-975.8384699305798
 11
1052.791271927011
 21
-81.61183017326109
 31
-975.8323763776102
210
-0.0251869429734098
220
-0.0000000000000247
230
0.9996827586307839
  0
LINE
  5
6AC
330
1F
100
AcDbEntity
  8
sideii
100
AcDbLine
 10
1052.791271927011
 20
-81.61183017326109
 30
-975.8323763776102
 11
1052.823061125035
 21
-81.44249017326108
 31
-975.834326323496
210
-0.0251869429734098
220
-0.0000000000000247
230
0.9996827586307839
  0
LINE
  5
6AD
330
1F
100
AcDbEntity
  8
sideii
100
AcDbLine
 10
1052.823061125035
 20
-81.44249017326108
 30
-975.834326323496
 11
1052.842043667355
 21
-81.34112017326108
 31
-975.8341881674564
210
-0.0251869429734098
220
-0.0000000000000247
230
0.9996827586307839
  0
LINE
  5
6AE
330
1F
100
AcDbEntity
  8
sideii
100
AcDbLine
 10
1052.842043667355
 20
-81.34112017326108
 30
-975.8341881674564
 11
1052.835407710843
 21
-81.22710017326111
 31
-975.8340352584056
210
-0.0251869429734098
220
-0.0000000000000247
230
0.9996827586307839
  0
LINE
  5
6AF
330
1F
100
AcDbEntity
  8
sideii
100
AcDbLine
 10
1052.835407710843
 20
-81.22710017326111
 30
-975.8340352584056
 11
1052.807484724492
 21
-81.03954017326111
 31
-975.8291069896197
210
-0.0251869429734098
220
-0.0000000000000247
230
0.9996827586307839
  0
LINE
  5
6B0
330
1F
100
AcDbEntity
  8
sideii
100
AcDbLine
 10
1052.807484724492
 20
-81.03954017326111
 30
-975.8291069896197
 11
1052.785496957019
 21
-80.9670901732611
 31
-975.8322517919266
210
-0.0251869429734098
220
-0.0000000000000247
230
0.9996827586307839
  0
LINE
  5
6B1
330
1F
100
AcDbEntity
  8
sideii
100
AcDbLine
 10
1052.785496957019
 20
-80.9670901732611
 30
-975.8322517919266
 11
1052.699664681082
 21
-80.92067017326106
 31
-975.8356247145965
210
-0.0251869429734098
220
-0.0000000000000247
230
0.9996827586307839
  0
LINE
  5
6B2
330
1F
100
AcDbEntity
  8
sideii
100
AcDbLine
 10
1052.699664681082
 20
-80.92067017326106
 30
-975.8356247145965
 11
1052.699722221302
 21
-80.92133017326109
 31
-975.8359233600769
210
-0.0251869429734098
220
-0.0000000000000247
230
0.9996827586307839
  0
LINE
  5
6B3
330
1F
100
AcDbEntity
  8
sideii
100
AcDbLine
 10
1052.810216937431
 20
-82.02120017326109
 30
-975.9641510150796
 11
1052.813171506655
 21
-82.0560301732611
 31
-975.9666773999869
210
-0.0251869429734098
220
-0.0000000000000247
230
0.9996827586307839
  0
LINE
  5
6B4
330
1F
100
AcDbEntity
  8
sideii
100
AcDbLine
 10
1052.813171506655
 20
-82.0560301732611
 30
-975.9666773999869
 11
1055.652609489946
 21
-82.05315017326123
 31
-975.9685512318823
210
-0.0251869429734098
220
-0.0000000000000247
230
0.9996827586307839
  0
LINE
  5
6B5
330
1F
100
AcDbEntity
  8
sideii
100
AcDbLine
 10
1055.652609489946
 20
-82.05315017326123
 30
-975.9685512318823
 11
1055.653398238134
 21
-82.01793017326123
 31
-975.9569776941216
210
-0.0251869429734098
220
-0.0000000000000247
230
0.9996827586307839
  0
LINE
  5
6B6
330
1F
100
AcDbEntity
  8
sideii
100
AcDbLine
 10
1055.653398238134
 20
-82.01793017326123
 30
-975.9569776941216
 11
1052.810216937431
 21
-82.02120017326109
 31
-975.9641510150796
210
-0.0251869429734098
220
-0.0000000000000247
230
0.9996827586307839
  0
LINE
  5
6B7
330
1F
100
AcDbEntity
  8
sideii
100
AcDbLine
 10
1055.072748033585
 20
-84.13627017326119
 30
-975.9781792237136
 11
1055.063304623484
 21
-82.10414017326119
 31
-975.9853093363117
210
-0.0251869429734098
220
-0.0000000000000247
230
0.9996827586307839
  0
LINE
  5
6B8
330
1F
100
AcDbEntity
  8
sideii
100
AcDbLine
 10
1055.063304623484
 20
-82.10414017326119
 30
-975.9853093363117
 11
1052.869006462899
 21
-82.10323017326109
 31
-975.9828462175461
210
-0.0251869429734098
220
-0.0000000000000247
230
0.9996827586307839
  0
LINE
  5
6B9
330
1F
100
AcDbEntity
  8
sideii
100
AcDbLine
 10
1052.869006462899
 20
-82.10323017326109
 30
-975.9828462175461
 11
1052.871367813401
 21
-84.0340201732611
 31
-975.9717532231888
210
-0.0251869429734098
220
-0.0000000000000247
230
0.9996827586307839
  0
LINE
  5
6BA
330
1F
100
AcDbEntity
  8
sideii
100
AcDbLine
 10
1053.396725570018
 20
-83.76767017326111
 30
-975.9737817108524
 11
1053.395735944016
 21
-82.33340017326112
 31
-975.9753971489898
210
-0.0251869429734098
220
-0.0000000000000247
230
0.9996827586307839
  0
LINE
  5
6BB
330
1F
100
AcDbEntity
  8
sideii
100
AcDbLine
 10
1053.816744883568
 20
-82.11656017326115
 30
-975.9688611473482
 11
1053.812360755845
 21
-83.74203017326113
 31
-975.9727227951975
210
-0.0251869429734098
220
-0.0000000000000247
230
0.9996827586307839
  0
LINE
  5
6BC
330
1F
100
AcDbEntity
  8
sideii
100
AcDbLine
 10
1054.223865422997
 20
-83.80592017326113
 30
-975.9649457834226
 11
1054.22920447867
 21
-82.11200017326115
 31
-975.9596796382929
210
-0.0251869429734098
220
-0.0000000000000247
230
0.9996827586307839
  0
LINE
  5
6BD
330
1F
100
AcDbEntity
  8
sideii
100
AcDbLine
 10
1054.648492044472
 20
-82.14192017326118
 30
-975.9689920205564
 11
1054.653178097845
 21
-83.79534017326117
 31
-975.9703644285819
210
-0.0251869429734098
220
-0.0000000000000247
230
0.9996827586307839
  0
INSERT
  5
6BE
330
1F
100
AcDbEntity
  8
INST_CTRL
100
AcDbBlockReference
 66
     1
  2
rpos_id
 10
-1046.436231899361
 20
-982.4479491417402
 30
-82.19813017324392
 41
6.000000000000079
 42
6.0
 43
6.0
 50
358.5567418451611
210
0.0000000000000401
220
1.0
230
0.0000000000000257
  0
ATTRIB
  5
6BF
330
6BE
100
AcDbEntity
  8
INST_ID
100
AcDbText
 10
-1046.108251423032
 20
-982.4562125888013
 30
-82.19813017324394
 40
0.3
  1
STA160
 50
358.5567418451622
210
0.0000000000000401
220
1.0
230
0.0000000000000257
100
AcDbAttribute
  2
ID
 70
     0
  0
SEQEND
  5
6C0
330
6BE
100
AcDbEntity
  8
INST_CTRL
  0
INSERT
  5
6C1
330
1F
100
AcDbEntity
  8
INST_CTRL
100
AcDbBlockReference
 66
     1
  2
rpos_id
 10
-1051.866152115858
 20
-970.1807843987577
 30
-82.03248017324392
 41
6.000000000000079
 42
6.0
 43
6.0
 50
358.5567418451611
210
0.0000000000000401
220
1.0
230
0.0000000000000257
  0
ATTRIB
  5
6C2
330
6C1
100
AcDbEntity
  8
INST_ID
100
AcDbText
 10
-1051.538171639529
 20
-970.1890478458187
 30
-82.03248017324394
 40
0.3
  1
STA161
 50
358.5567418451622
210
0.0000000000000401
220
1.0
230
0.0000000000000257
100
AcDbAttribute
  2
ID
 70
     0
  0
SEQEND
  5
6C3
330
6C1
100
AcDbEntity
  8
INST_CTRL
  0
INSERT
  5
6C4
330
1F
100
AcDbEntity
  8
INST_CTRL
100
AcDbBlockReference
 66
     1
  2
ipos_id
 10
-1047.196742240246
 20
-977.2956396854473
 30
-84.13652017324395
 41
6.000000000000079
 42
6.0
 43
6.0
 50
358.5567418451611
210
0.0000000000000401
220
1.0
230
0.0000000000000257
  0
ATTRIB
  5
6C5
330
6C4
100
AcDbEntity
  8
INST_ID
100
AcDbText
 10
-1046.85285832079
 20
-977.3043038187376
 30
-84.13652017324393
 40
0.3
  1
STA162
 50
358.5567418451622
210
0.0000000000000401
220
1.0
230
0.0000000000000257
100
AcDbAttribute
  2
ID
 70
     0
  0
SEQEND
  5
6C6
330
6C4
100
AcDbEntity
  8
INST_CTRL
  0
LINE
  5
6C7
330
1F
100
AcDbEntity
  8
sideiii
100
AcDbLine
 10
1052.550351457835
 20
-82.38487017326107
 30
-976.1069615375008
 11
1052.540599399559
 21
-81.70760017326108
 31
-976.1089878048522
210
0.0000000000000401
220
1.0
230
0.0000000000000257
  0
LINE
  5
6C8
330
1F
100
AcDbEntity
  8
sideiii
100
AcDbLine
 10
1052.540599399559
 20
-81.70760017326108
 30
-976.1089878048522
 11
1052.540897161193
 21
-81.70514017326111
 31
-975.9619936725272
210
0.0000000000000401
220
1.0
230
0.0000000000000257
  0
LINE
  5
6C9
330
1F
100
AcDbEntity
  8
sideiii
100
AcDbLine
 10
1052.540897161193
 20
-81.70514017326111
 30
-975.9619936725272
 11
1052.542594277108
 21
-82.37965017326109
 31
-975.9614607583031
210
0.0000000000000401
220
1.0
230
0.0000000000000257
  0
LINE
  5
6CA
330
1F
100
AcDbEntity
  8
sideiii
100
AcDbLine
 10
1052.542594277108
 20
-82.37965017326109
 30
-975.9614607583031
 11
1052.550351457835
 21
-82.38487017326107
 31
-976.1069615375008
210
0.0000000000000401
220
1.0
230
0.0000000000000257
  0
LINE
  5
6CB
330
1F
100
AcDbEntity
  8
sideiii
100
AcDbLine
 10
1052.544694614186
 20
-80.98783017326107
 30
-976.1282007540573
 11
1052.543605331707
 21
-81.33965017326108
 31
-976.1314192107805
210
0.0000000000000401
220
1.0
230
0.0000000000000257
  0
LINE
  5
6CC
330
1F
100
AcDbEntity
  8
sideiii
100
AcDbLine
 10
1052.543605331707
 20
-81.33965017326108
 30
-976.1314192107805
 11
1052.542945018072
 21
-81.34081017326108
 31
-975.944016390135
210
0.0000000000000401
220
1.0
230
0.0000000000000257
  0
LINE
  5
6CD
330
1F
100
AcDbEntity
  8
sideiii
100
AcDbLine
 10
1052.542945018072
 20
-81.34081017326108
 30
-975.944016390135
 11
1052.546393527973
 21
-80.99465017326108
 31
-975.9367672329803
210
0.0000000000000401
220
1.0
230
0.0000000000000257
  0
LINE
  5
6CE
330
1F
100
AcDbEntity
  8
sideiii
100
AcDbLine
 10
1052.546393527973
 20
-80.99465017326108
 30
-975.9367672329803
 11
1052.544694614186
 21
-80.98783017326107
 31
-976.1282007540573
210
0.0000000000000401
220
1.0
230
0.0000000000000257
  0
LINE
  5
6CF
330
1F
100
AcDbEntity
  8
sideiii
100
AcDbLine
 10
1052.546589512142
 20
-81.22401017326106
 30
-976.1922933601965
 11
1052.546537842868
 21
-81.68500017326108
 31
-976.1926247667236
210
0.0000000000000401
220
1.0
230
0.0000000000000257
  0
LINE
  5
6D0
330
1F
100
AcDbEntity
  8
sideiii
100
AcDbLine
 10
1052.546537842868
 20
-81.68500017326108
 30
-976.1926247667236
 11
1052.54946517415
 21
-81.68911017326108
 31
-976.4350679492046
210
0.0000000000000401
220
1.0
230
0.0000000000000257
  0
LINE
  5
6D1
330
1F
100
AcDbEntity
  8
sideiii
100
AcDbLine
 10
1052.54946517415
 20
-81.68911017326108
 30
-976.4350679492046
 11
1052.54701724678
 21
-81.04479017326108
 31
-976.4327988851709
210
0.0000000000000401
220
1.0
230
0.0000000000000257
  0
LINE
  5
6D2
330
1F
100
AcDbEntity
  8
sideiii
100
AcDbLine
 10
1052.54701724678
 20
-81.04479017326108
 30
-976.4327988851709
 11
1052.547790646021
 21
-81.04125017326106
 31
-976.2975364947823
210
0.0000000000000401
220
1.0
230
0.0000000000000257
  0
LINE
  5
6D3
330
1F
100
AcDbEntity
  8
sideiii
100
AcDbLine
 10
1052.556046635928
 20
-80.8359601732611
 30
-975.9951326166151
 11
1052.558803842609
 21
-80.83871017326107
 31
-976.4213984001484
210
0.9996827586307839
220
-0.0000000000000407
230
0.0251869429734098
  0
LINE
  5
6D4
330
1F
100
AcDbEntity
  8
sideiii
100
AcDbLine
 10
1052.558803842609
 20
-80.83871017326107
 30
-976.4213984001484
 11
1052.567182347923
 21
-79.92221017326108
 31
-976.4053522807197
210
0.9996827586307839
220
-0.0000000000000407
230
0.0251869429734098
  0
LINE
  5
6D5
330
1F
100
AcDbEntity
  8
sideiii
100
AcDbLine
 10
1052.557022378096
 20
-79.77854017326106
 30
-976.2724760254551
 11
1052.550851212046
 21
-79.78694017326109
 31
-975.9961738037675
210
0.9996827586307839
220
-0.0000000000000407
230
0.0251869429734098
  0
LINE
  5
6D6
330
1F
100
AcDbEntity
  8
sideiii
100
AcDbLine
 10
1052.550851212046
 20
-79.78694017326109
 30
-975.9961738037675
 11
1052.550601022305
 21
-79.8511701732611
 31
-975.9640099015619
210
0.9996827586307839
220
-0.0000000000000407
230
0.0251869429734098
  0
LINE
  5
6D7
330
1F
100
AcDbEntity
  8
sideiii
100
AcDbLine
 10
1052.550601022305
 20
-79.8511701732611
 30
-975.9640099015619
 11
1052.548533268161
 21
-80.17267017326108
 31
-975.9645221444722
210
0.9996827586307839
220
-0.0000000000000407
230
0.0251869429734098
  0
LINE
  5
6D8
330
1F
100
AcDbEntity
  8
sideiii
100
AcDbLine
 10
1052.557358978747
 20
-79.91971017326108
 30
-976.4787929997934
 11
1052.557239502534
 21
-79.95577017326107
 31
-976.4800063939729
210
0.9996827586307839
220
-0.0000000000000407
230
0.0251869429734098
  0
LINE
  5
6D9
330
1F
100
AcDbEntity
  8
sideiii
100
AcDbLine
 10
1052.557239502534
 20
-79.95577017326107
 30
-976.4800063939729
 11
1052.561187464901
 21
-79.95616017326105
 31
-976.9146248358193
210
0.9996827586307839
220
-0.0000000000000407
230
0.0251869429734098
  0
LINE
  5
6DA
330
1F
100
AcDbEntity
  8
sideiii
100
AcDbLine
 10
1052.561187464901
 20
-79.95616017326105
 30
-976.9146248358193
 11
1052.557084231941
 21
-79.76562017326106
 31
-976.914548159389
210
0.9996827586307839
220
-0.0000000000000407
230
0.0251869429734098
  0
LINE
  5
6DB
330
1F
100
AcDbEntity
  8
sideiii
100
AcDbLine
 10
1052.557084231941
 20
-79.76562017326106
 30
-976.914548159389
 11
1052.5558160174
 21
-79.76388017326107
 31
-976.5457931174818
210
0.9996827586307839
220
-0.0000000000000407
230
0.0251869429734098
  0
LINE
  5
6DC
330
1F
100
AcDbEntity
  8
sideiii
100
AcDbLine
 10
1052.55509410681
 20
-80.00537017326108
 30
-976.4706874735853
 11
1052.541421816944
 21
-81.04493017326106
 31
-976.4703717366058
210
0.9996827586307839
220
-0.0000000000000407
230
0.0251869429734098
  0
LINE
  5
6DD
330
1F
100
AcDbEntity
  8
sideiii
100
AcDbLine
 10
1052.541421816944
 20
-81.04493017326106
 30
-976.4703717366058
 11
1052.544941456696
 21
-81.04314017326107
 31
-976.9141938863866
210
0.9996827586307839
220
-0.0000000000000407
230
0.0251869429734098
  0
LINE
  5
6DE
330
1F
100
AcDbEntity
  8
sideiii
100
AcDbLine
 10
1052.544941456696
 20
-81.04314017326107
 30
-976.9141938863866
 11
1052.552309742225
 21
-80.00657017326105
 31
-976.9172092583998
210
0.9996827586307839
220
-0.0000000000000407
230
0.0251869429734098
  0
LINE
  5
6DF
330
1F
100
AcDbEntity
  8
sideiii
100
AcDbLine
 10
1052.552309742225
 20
-80.00657017326105
 30
-976.9172092583998
 11
1052.55509410681
 21
-80.00537017326108
 31
-976.4706874735853
210
0.9996827586307839
220
-0.0000000000000407
230
0.0251869429734098
  0
LINE
  5
6E0
330
1F
100
AcDbEntity
  8
sideiii
100
AcDbLine
 10
1052.557693651189
 20
-79.87871017326106
 30
-977.0510961286458
 11
1052.55117663111
 21
-80.36891017326107
 31
-977.0520905879426
210
0.9996827586307839
220
-0.0000000000000407
230
0.0251869429734098
  0
LINE
  5
6E1
330
1F
100
AcDbEntity
  8
sideiii
100
AcDbLine
 10
1052.55117663111
 20
-80.36891017326107
 30
-977.0520905879426
 11
1052.555372175681
 21
-80.37172017326104
 31
-977.2360832850958
210
0.9996827586307839
220
-0.0000000000000407
230
0.0251869429734098
  0
LINE
  5
6E2
330
1F
100
AcDbEntity
  8
sideiii
100
AcDbLine
 10
1052.555372175681
 20
-80.37172017326104
 30
-977.2360832850958
 11
1052.558581511043
 21
-79.88108017326104
 31
-977.2403838160554
210
0.9996827586307839
220
-0.0000000000000407
230
0.0251869429734098
  0
LINE
  5
6E3
330
1F
100
AcDbEntity
  8
sideiii
100
AcDbLine
 10
1052.558581511043
 20
-79.88108017326104
 30
-977.2403838160554
 11
1052.557693651189
 21
-79.87871017326106
 31
-977.0510961286458
210
0.9996827586307839
220
-0.0000000000000407
230
0.0251869429734098
  0
LINE
  5
6E4
330
1F
100
AcDbEntity
  8
sideiii
100
AcDbLine
 10
1052.552982233599
 20
-80.50329017326106
 30
-977.1825164868262
 11
1052.548449232187
 21
-80.50756017326106
 31
-976.976395269097
210
0.9996827586307839
220
-0.0000000000000407
230
0.0251869429734098
  0
LINE
  5
6E5
330
1F
100
AcDbEntity
  8
sideiii
100
AcDbLine
 10
1052.548449232187
 20
-80.50756017326106
 30
-976.976395269097
 11
1052.547815623834
 21
-81.15067017326106
 31
-976.9838035779766
210
0.9996827586307839
220
-0.0000000000000407
230
0.0251869429734098
  0
LINE
  5
6E6
330
1F
100
AcDbEntity
  8
sideiii
100
AcDbLine
 10
1052.547815623834
 20
-81.15067017326106
 30
-976.9838035779766
 11
1052.557270237303
 21
-81.14601017326107
 31
-977.1688841603838
210
0.9996827586307839
220
-0.0000000000000407
230
0.0251869429734098
  0
LINE
  5
6E7
330
1F
100
AcDbEntity
  8
sideiii
100
AcDbLine
 10
1052.557270237303
 20
-81.14601017326107
 30
-977.1688841603838
 11
1052.552982233599
 21
-80.50329017326106
 31
-977.1825164868262
210
0.9996827586307839
220
-0.0000000000000407
230
0.0251869429734098
  0
LINE
  5
6E8
330
1F
100
AcDbEntity
  8
sideiii
100
AcDbLine
 10
1052.53807964204
 20
-81.21514017326109
 30
-976.5564832339038
 11
1052.569105363462
 21
-81.20785017326104
 31
-977.7362960762692
210
0.9996827586307839
220
-0.0000000000000407
230
0.0251869429734098
  0
LINE
  5
6E9
330
1F
100
AcDbEntity
  8
sideiii
100
AcDbLine
 10
1052.569105363462
 20
-81.20785017326104
 30
-977.7362960762692
 11
1052.59154467918
 21
-81.89015017326104
 31
-977.7379714299952
210
0.9996827586307839
220
-0.0000000000000407
230
0.0251869429734098
  0
LINE
  5
6EA
330
1F
100
AcDbEntity
  8
sideiii
100
AcDbLine
 10
1052.59154467918
 20
-81.89015017326104
 30
-977.7379714299952
 11
1052.582293142463
 21
-81.90228017326106
 31
-977.1623318312286
210
0.9996827586307839
220
-0.0000000000000407
230
0.0251869429734098
  0
LINE
  5
6EB
330
1F
100
AcDbEntity
  8
sideiii
100
AcDbLine
 10
1052.582293142463
 20
-81.90228017326106
 30
-977.1623318312286
 11
1052.55493462987
 21
-81.73555017326107
 31
-977.00551115852
210
0.9996827586307839
220
-0.0000000000000407
230
0.0251869429734098
  0
LINE
  5
6EC
330
1F
100
AcDbEntity
  8
sideiii
100
AcDbLine
 10
1052.55493462987
 20
-81.73555017326107
 30
-977.00551115852
 11
1052.559384706738
 21
-81.59779017326107
 31
-976.4742305304938
210
0.9996827586307839
220
-0.0000000000000407
230
0.0251869429734098
  0
LINE
  5
6ED
330
1F
100
AcDbEntity
  8
sideiii
100
AcDbLine
 10
1052.559384706738
 20
-81.59779017326107
 30
-976.4742305304938
 11
1052.539401084434
 21
-81.32260017326107
 31
-976.472353261302
210
0.9996827586307839
220
-0.0000000000000407
230
0.0251869429734098
  0
LINE
  5
6EE
330
1F
100
AcDbEntity
  8
sideiii
100
AcDbLine
 10
1052.562189085075
 20
-83.44318017326102
 30
-977.8520670035062
 11
1052.543475653717
 21
-82.97097017326104
 31
-977.8442258500964
210
0.9996827586307839
220
-0.0000000000000407
230
0.0251869429734098
  0
LINE
  5
6EF
330
1F
100
AcDbEntity
  8
sideiii
100
AcDbLine
 10
1052.543475653717
 20
-82.97097017326104
 30
-977.8442258500964
 11
1052.55365167194
 21
-82.96096017326105
 31
-978.1877685332567
210
0.9996827586307839
220
-0.0000000000000407
230
0.0251869429734098
  0
LINE
  5
6F0
330
1F
100
AcDbEntity
  8
sideiii
100
AcDbLine
 10
1052.55365167194
 20
-82.96096017326105
 30
-978.1877685332567
 11
1052.567838711256
 21
-83.43531017326103
 31
-978.1966040080845
210
0.9996827586307839
220
-0.0000000000000407
230
0.0251869429734098
  0
LINE
  5
6F1
330
1F
100
AcDbEntity
  8
sideiii
100
AcDbLine
 10
1052.567838711256
 20
-83.43531017326103
 30
-978.1966040080845
 11
1052.562189085075
 21
-83.44318017326102
 31
-977.8520670035062
210
0.9996827586307839
220
-0.0000000000000407
230
0.0251869429734098
  0
LINE
  5
6F2
330
1F
100
AcDbEntity
  8
sideiii
100
AcDbLine
 10
1052.565986607635
 20
-82.93975017326104
 30
-978.1135643132865
 11
1052.564095947874
 21
-82.03784017326103
 31
-978.1135619324707
210
0.9996827586307839
220
-0.0000000000000407
230
0.0251869429734098
  0
LINE
  5
6F3
330
1F
100
AcDbEntity
  8
sideiii
100
AcDbLine
 10
1052.564095947874
 20
-82.03784017326103
 30
-978.1135619324707
 11
1052.560748246514
 21
-82.03673017326101
 31
-977.854434044748
210
0.9996827586307839
220
-0.0000000000000407
230
0.0251869429734098
  0
LINE
  5
6F4
330
1F
100
AcDbEntity
  8
sideiii
100
AcDbLine
 10
1052.560748246514
 20
-82.03673017326101
 30
-977.854434044748
 11
1052.563856516439
 21
-82.93456017326102
 31
-977.8479737074446
210
0.9996827586307839
220
-0.0000000000000407
230
0.0251869429734098
  0
LINE
  5
6F5
330
1F
100
AcDbEntity
  8
sideiii
100
AcDbLine
 10
1052.563856516439
 20
-82.93456017326102
 30
-977.8479737074446
 11
1052.565986607635
 21
-82.93975017326104
 31
-978.1135643132865
210
0.9996827586307839
220
-0.0000000000000407
230
0.0251869429734098
  0
LINE
  5
6F6
330
1F
100
AcDbEntity
  8
sideiii
100
AcDbLine
 10
1052.569890844889
 20
-81.99828017326103
 30
-977.9016687554483
 11
1052.563974078275
 21
-81.71489017326104
 31
-977.9010775931707
210
0.9996827586307839
220
-0.0000000000000407
230
0.0251869429734098
  0
LINE
  5
6F7
330
1F
100
AcDbEntity
  8
sideiii
100
AcDbLine
 10
1052.563974078275
 20
-81.71489017326104
 30
-977.9010775931707
 11
1052.562610127781
 21
-81.71314017326102
 31
-978.0684850554864
210
0.9996827586307839
220
-0.0000000000000407
230
0.0251869429734098
  0
LINE
  5
6F8
330
1F
100
AcDbEntity
  8
sideiii
100
AcDbLine
 10
1052.562610127781
 20
-81.71314017326102
 30
-978.0684850554864
 11
1052.566529040094
 21
-81.99730017326103
 31
-978.0691865726158
210
0.9996827586307839
220
-0.0000000000000407
230
0.0251869429734098
  0
LINE
  5
6F9
330
1F
100
AcDbEntity
  8
sideiii
100
AcDbLine
 10
1052.566529040094
 20
-81.99730017326103
 30
-978.0691865726158
 11
1052.569890844889
 21
-81.99828017326103
 31
-977.9016687554483
210
0.9996827586307839
220
-0.0000000000000407
230
0.0251869429734098
  0
LINE
  5
6FA
330
1F
100
AcDbEntity
  8
sideiii
100
AcDbLine
 10
1052.548163105154
 20
-81.37940017326101
 30
-977.8142882900915
 11
1052.554834083669
 21
-81.69360017326104
 31
-977.8094787427489
210
0.9996827586307839
220
-0.0000000000000407
230
0.0251869429734098
  0
LINE
  5
6FB
330
1F
100
AcDbEntity
  8
sideiii
100
AcDbLine
 10
1052.554834083669
 20
-81.69360017326104
 30
-977.8094787427489
 11
1052.561160349318
 21
-81.69064017326101
 31
-978.4893650915329
210
0.9996827586307839
220
-0.0000000000000407
230
0.0251869429734098
  0
LINE
  5
6FC
330
1F
100
AcDbEntity
  8
sideiii
100
AcDbLine
 10
1052.561160349318
 20
-81.69064017326101
 30
-978.4893650915329
 11
1052.555658627902
 21
-81.25966017326101
 31
-978.490954167197
210
0.9996827586307839
220
-0.0000000000000407
230
0.0251869429734098
  0
LINE
  5
6FD
330
1F
100
AcDbEntity
  8
sideiii
100
AcDbLine
 10
1052.555658627902
 20
-81.25966017326101
 30
-978.490954167197
 11
1052.547244370965
 21
-81.26034017326103
 31
-977.9552961637282
210
0.9996827586307839
220
-0.0000000000000407
230
0.0251869429734098
  0
LINE
  5
6FE
330
1F
100
AcDbEntity
  8
sideiii
100
AcDbLine
 10
1052.579383388803
 20
-83.17138017326101
 30
-978.3225031733731
 11
1052.572234493701
 21
-83.44102017326102
 31
-978.3218430227591
210
0.9996827586307839
220
-0.0000000000000407
230
0.0251869429734098
  0
LINE
  5
6FF
330
1F
100
AcDbEntity
  8
sideiii
100
AcDbLine
 10
1052.572234493701
 20
-83.44102017326102
 30
-978.3218430227591
 11
1052.576366583096
 21
-83.44393017326101
 31
-979.0627339893243
210
0.9996827586307839
220
-0.0000000000000407
230
0.0251869429734098
  0
LINE
  5
700
330
1F
100
AcDbEntity
  8
sideiii
100
AcDbLine
 10
1052.576366583096
 20
-83.44393017326101
 30
-979.0627339893243
 11
1052.571461529044
 21
-83.17638017326101
 31
-979.0610069847636
210
0.9996827586307839
220
-0.0000000000000407
230
0.0251869429734098
  0
LINE
  5
701
330
1F
100
AcDbEntity
  8
sideiii
100
AcDbLine
 10
1052.571461529044
 20
-83.17638017326101
 30
-979.0610069847636
 11
1052.579383388803
 21
-83.17138017326101
 31
-978.3225031733731
210
0.9996827586307839
220
-0.0000000000000407
230
0.0251869429734098
  0
LINE
  5
702
330
1F
100
AcDbEntity
  8
sideiii
100
AcDbLine
 10
1052.571128645245
 20
-83.182970173261
 30
-979.1418910288538
 11
1052.569294297788
 21
-83.43023017326101
 31
-979.323184744325
210
0.9996827586307839
220
-0.0000000000000407
230
0.0251869429734098
  0
LINE
  5
703
330
1F
100
AcDbEntity
  8
sideiii
100
AcDbLine
 10
1052.569294297788
 20
-83.43023017326101
 30
-979.323184744325
 11
1052.566302225156
 21
-83.43752017326099
 31
-979.9889613173592
210
0.9996827586307839
220
-0.0000000000000407
230
0.0251869429734098
  0
LINE
  5
704
330
1F
100
AcDbEntity
  8
sideiii
100
AcDbLine
 10
1052.566302225156
 20
-83.43752017326099
 30
-979.9889613173592
 11
1052.563650612948
 21
-83.198740173261
 31
-979.9956802348834
210
0.9996827586307839
220
-0.0000000000000407
230
0.0251869429734098
  0
LINE
  5
705
330
1F
100
AcDbEntity
  8
sideiii
100
AcDbLine
 10
1052.563650612948
 20
-83.198740173261
 30
-979.9956802348834
 11
1052.571128645245
 21
-83.182970173261
 31
-979.1418910288538
210
0.9996827586307839
220
-0.0000000000000407
230
0.0251869429734098
  0
LINE
  5
706
330
1F
100
AcDbEntity
  8
sideiii
100
AcDbLine
 10
1052.590915343363
 20
-83.06205017326098
 30
-980.0213316573657
 11
1052.568499913752
 21
-82.63441017326099
 31
-980.0011498310029
210
0.9996827586307839
220
-0.0000000000000407
230
0.0251869429734098
  0
LINE
  5
707
330
1F
100
AcDbEntity
  8
sideiii
100
AcDbLine
 10
1052.568499913752
 20
-82.63441017326099
 30
-980.0011498310029
 11
1052.561670584385
 21
-82.63363017326099
 31
-979.6395671319416
210
0.9996827586307839
220
-0.0000000000000407
230
0.0251869429734098
  0
LINE
  5
708
330
1F
100
AcDbEntity
  8
sideiii
100
AcDbLine
 10
1052.561670584385
 20
-82.63363017326099
 30
-979.6395671319416
 11
1052.562339808166
 21
-83.05600017326099
 31
-979.6379397599707
210
0.9996827586307839
220
-0.0000000000000407
230
0.0251869429734098
  0
LINE
  5
709
330
1F
100
AcDbEntity
  8
sideiii
100
AcDbLine
 10
1052.562339808166
 20
-83.05600017326099
 30
-979.6379397599707
 11
1052.590915343363
 21
-83.06205017326098
 31
-980.0213316573657
210
0.9996827586307839
220
-0.0000000000000407
230
0.0251869429734098
  0
LINE
  5
70A
330
1F
100
AcDbEntity
  8
sideiii
100
AcDbLine
 10
1052.567894301048
 20
-82.30016017326098
 30
-979.4466791835079
 11
1052.569719420695
 21
-82.536610173261
 31
-979.4476535234243
210
0.9996827586307839
220
-0.0000000000000407
230
0.0251869429734098
  0
LINE
  5
70B
330
1F
100
AcDbEntity
  8
sideiii
100
AcDbLine
 10
1052.569719420695
 20
-82.536610173261
 30
-979.4476535234243
 11
1052.577935911516
 21
-82.53537017326099
 31
-980.0008720789506
210
0.9996827586307839
220
-0.0000000000000407
230
0.0251869429734098
  0
LINE
  5
70C
330
1F
100
AcDbEntity
  8
sideiii
100
AcDbLine
 10
1052.577935911516
 20
-82.53537017326099
 30
-980.0008720789506
 11
1052.574954296292
 21
-82.29771017326099
 31
-979.9980662866099
210
0.9996827586307839
220
-0.0000000000000407
230
0.0251869429734098
  0
LINE
  5
70D
330
1F
100
AcDbEntity
  8
sideiii
100
AcDbLine
 10
1052.574954296292
 20
-82.29771017326099
 30
-979.9980662866099
 11
1052.567894301048
 21
-82.30016017326098
 31
-979.4466791835079
210
0.9996827586307839
220
-0.0000000000000407
230
0.0251869429734098
  0
LINE
  5
70E
330
1F
100
AcDbEntity
  8
sideiii
100
AcDbLine
 10
1052.56241819362
 20
-81.56802017326098
 30
-979.6374776390768
 11
1052.569475999153
 21
-81.56904017326098
 31
-979.9839097771371
210
0.9996827586307839
220
-0.0000000000000407
230
0.0251869429734098
  0
LINE
  5
70F
330
1F
100
AcDbEntity
  8
sideiii
100
AcDbLine
 10
1052.569475999153
 20
-81.56904017326098
 30
-979.9839097771371
 11
1052.572370275614
 21
-82.25163017326099
 31
-979.9848371733695
210
0.9996827586307839
220
-0.0000000000000407
230
0.0251869429734098
  0
LINE
  5
710
330
1F
100
AcDbEntity
  8
sideiii
100
AcDbLine
 10
1052.572370275614
 20
-82.25163017326099
 30
-979.9848371733695
 11
1052.566973406481
 21
-82.25102017326099
 31
-979.6471559775596
210
0.9996827586307839
220
-0.0000000000000407
230
0.0251869429734098
  0
LINE
  5
711
330
1F
100
AcDbEntity
  8
sideiii
100
AcDbLine
 10
1052.566973406481
 20
-82.25102017326099
 30
-979.6471559775596
 11
1052.565787646276
 21
-81.86425017326099
 31
-979.6362223746431
210
0.9996827586307839
220
-0.0000000000000407
230
0.0251869429734098
  0
LINE
  5
712
330
1F
100
AcDbEntity
  8
sideiii
100
AcDbLine
 10
1052.567139918158
 20
-81.69219017326099
 30
-979.5743586893278
 11
1052.563200720509
 21
-81.69478017326099
 31
-979.4874903474427
210
0.9996827586307839
220
-0.0000000000000407
230
0.0251869429734098
  0
LINE
  5
713
330
1F
100
AcDbEntity
  8
sideiii
100
AcDbLine
 10
1052.563200720509
 20
-81.69478017326099
 30
-979.4874903474427
 11
1052.572809362823
 21
-82.11477017326101
 31
-979.4920797910783
210
0.9996827586307839
220
-0.0000000000000407
230
0.0251869429734098
  0
LINE
  5
714
330
1F
100
AcDbEntity
  8
sideiii
100
AcDbLine
 10
1052.572809362823
 20
-82.11477017326101
 30
-979.4920797910783
 11
1052.568591844841
 21
-82.11356017326099
 31
-979.577593145837
210
0.9996827586307839
220
-0.0000000000000407
230
0.0251869429734098
  0
LINE
  5
715
330
1F
100
AcDbEntity
  8
sideiii
100
AcDbLine
 10
1052.567508840658
 20
-81.92434017326098
 30
-979.5989271914434
 11
1052.569985595134
 21
-81.87007017326099
 31
-979.6003552626128
210
0.9996827586307839
220
-0.0000000000000407
230
0.0251869429734098
  0
LINE
  5
716
330
1F
100
AcDbEntity
  8
sideiii
100
AcDbLine
 10
1052.565757414403
 20
-81.797140173261
 30
-979.4579465796342
 11
1052.5622312449
 21
-81.87906017326099
 31
-979.4565549515823
210
0.9996827586307839
220
-0.0000000000000407
230
0.0251869429734098
  0
LINE
  5
717
330
1F
100
AcDbEntity
  8
sideiii
100
AcDbLine
 10
1052.564882294698
 20
-81.72022017326099
 30
-979.398199667032
 11
1052.556926432584
 21
-81.73449017326101
 31
-978.4650440153006
210
0.9996827586307839
220
-0.0000000000000407
230
0.0251869429734098
  0
LINE
  5
718
330
1F
100
AcDbEntity
  8
sideiii
100
AcDbLine
 10
1052.556926432584
 20
-81.73449017326101
 30
-978.4650440153006
 11
1052.559018216161
 21
-81.97611017326101
 31
-978.4698528552299
210
0.9996827586307839
220
-0.0000000000000407
230
0.0251869429734098
  0
LINE
  5
719
330
1F
100
AcDbEntity
  8
sideiii
100
AcDbLine
 10
1052.559018216161
 20
-81.97611017326101
 30
-978.4698528552299
 11
1052.569706806695
 21
-82.053070173261
 31
-978.8325487044374
210
0.9996827586307839
220
-0.0000000000000407
230
0.0251869429734098
  0
LINE
  5
71A
330
1F
100
AcDbEntity
  8
sideiii
100
AcDbLine
 10
1052.569706806695
 20
-82.053070173261
 30
-978.8325487044374
 11
1052.569663344754
 21
-82.04575017326101
 31
-979.4061217602125
210
0.9996827586307839
220
-0.0000000000000407
230
0.0251869429734098
  0
LINE
  5
71B
330
1F
100
AcDbEntity
  8
sideiii
100
AcDbLine
 10
1052.55792207243
 20
-81.509820173261
 30
-979.4590242698337
 11
1052.560377135546
 21
-81.51647017326101
 31
-979.0065788999102
210
0.9996827586307839
220
-0.0000000000000407
230
0.0251869429734098
  0
LINE
  5
71C
330
1F
100
AcDbEntity
  8
sideiii
100
AcDbLine
 10
1052.560377135546
 20
-81.51647017326101
 30
-979.0065788999102
 11
1052.569682616751
 21
-81.69968017326098
 31
-979.0098555627789
210
0.9996827586307839
220
-0.0000000000000407
230
0.0251869429734098
  0
LINE
  5
71D
330
1F
100
AcDbEntity
  8
sideiii
100
AcDbLine
 10
1052.569682616751
 20
-81.69968017326098
 30
-979.0098555627789
 11
1052.565084785985
 21
-81.69554017326101
 31
-979.3959138417369
210
0.9996827586307839
220
-0.0000000000000407
230
0.0251869429734098
  0
LINE
  5
71E
330
1F
100
AcDbEntity
  8
sideiii
100
AcDbLine
 10
1052.572758988937
 20
-81.52113017326099
 30
-979.4900804255609
 11
1052.571611062788
 21
-81.369830173261
 31
-979.4937505026117
210
0.9996827586307839
220
-0.0000000000000407
230
0.0251869429734098
  0
LINE
  5
71F
330
1F
100
AcDbEntity
  8
sideiii
100
AcDbLine
 10
1052.571611062788
 20
-81.369830173261
 30
-979.4937505026117
 11
1052.56669247442
 21
-81.37246017326097
 31
-979.7035009283288
210
0.9996827586307839
220
-0.0000000000000407
230
0.0251869429734098
  0
LINE
  5
720
330
1F
100
AcDbEntity
  8
sideiii
100
AcDbLine
 10
1052.56669247442
 20
-81.37246017326097
 30
-979.7035009283288
 11
1052.574467937265
 21
-81.49581017326099
 31
-979.7067961335647
210
0.9996827586307839
220
-0.0000000000000407
230
0.0251869429734098
  0
LINE
  5
721
330
1F
100
AcDbEntity
  8
sideiii
100
AcDbLine
 10
1052.574467937265
 20
-81.49581017326099
 30
-979.7067961335647
 11
1052.568395366569
 21
-81.51613017326098
 31
-979.6543624489228
210
0.9996827586307839
220
-0.0000000000000407
230
0.0251869429734098
  0
LINE
  5
722
330
1F
100
AcDbEntity
  8
sideiii
100
AcDbLine
 10
1052.568395366569
 20
-81.51613017326098
 30
-979.6543624489228
 11
1052.572758988937
 21
-81.52113017326099
 31
-979.4900804255609
210
0.9996827586307839
220
-0.0000000000000407
230
0.0251869429734098
  0
LINE
  5
723
330
1F
100
AcDbEntity
  8
sideiii
100
AcDbLine
 10
1052.556823147673
 20
-81.26645017326101
 30
-978.956042381726
 11
1052.555693502807
 21
-81.268150173261
 31
-978.6122417662486
210
0.9996827586307839
220
-0.0000000000000407
230
0.0251869429734098
  0
LINE
  5
724
330
1F
100
AcDbEntity
  8
sideiii
100
AcDbLine
 10
1052.555693502807
 20
-81.268150173261
 30
-978.6122417662486
 11
1052.566853722414
 21
-81.54490017326102
 31
-978.61330101047
210
0.9996827586307839
220
-0.0000000000000407
230
0.0251869429734098
  0
LINE
  5
725
330
1F
100
AcDbEntity
  8
sideiii
100
AcDbLine
 10
1052.566853722414
 20
-81.54490017326102
 30
-978.61330101047
 11
1052.567338862745
 21
-81.54414017326102
 31
-978.9573279308395
210
0.9996827586307839
220
-0.0000000000000407
230
0.0251869429734098
  0
LINE
  5
726
330
1F
100
AcDbEntity
  8
sideiii
100
AcDbLine
 10
1052.54794264984
 20
-81.03286017326103
 30
-977.2330194401613
 11
1052.56113121797
 21
-81.04991017326105
 31
-977.2339875675779
210
0.9996827586307839
220
-0.0000000000000407
230
0.0251869429734098
  0
LINE
  5
727
330
1F
100
AcDbEntity
  8
sideiii
100
AcDbLine
 10
1052.56113121797
 20
-81.04991017326105
 30
-977.2339875675779
 11
1052.552648817141
 21
-81.07600017326104
 31
-977.6981284580154
210
0.9996827586307839
220
-0.0000000000000407
230
0.0251869429734098
  0
LINE
  5
728
330
1F
100
AcDbEntity
  8
sideiii
100
AcDbLine
 10
1052.552648817141
 20
-81.07600017326104
 30
-977.6981284580154
 11
1052.545228232455
 21
-80.61503017326103
 31
-977.7037571455112
210
0.9996827586307839
220
-0.0000000000000407
230
0.0251869429734098
  0
LINE
  5
729
330
1F
100
AcDbEntity
  8
sideiii
100
AcDbLine
 10
1052.545228232455
 20
-80.61503017326103
 30
-977.7037571455112
 11
1052.544201437068
 21
-80.61965017326105
 31
-977.2528699672824
210
0.9996827586307839
220
-0.0000000000000407
230
0.0251869429734098
  0
LINE
  5
72A
330
1F
100
AcDbEntity
  8
sideiii
100
AcDbLine
 10
1052.544387837209
 20
-80.50574017326104
 30
-977.3091031119124
 11
1052.560094214531
 21
-79.67116017326105
 31
-977.3131287933951
210
0.9996827586307839
220
-0.0000000000000407
230
0.0251869429734098
  0
LINE
  5
72B
330
1F
100
AcDbEntity
  8
sideiii
100
AcDbLine
 10
1052.560094214531
 20
-79.67116017326105
 30
-977.3131287933951
 11
1052.564270852961
 21
-79.66758017326103
 31
-978.3686484511427
210
0.9996827586307839
220
-0.0000000000000407
230
0.0251869429734098
  0
LINE
  5
72C
330
1F
100
AcDbEntity
  8
sideiii
100
AcDbLine
 10
1052.564270852961
 20
-79.66758017326103
 30
-978.3686484511427
 11
1052.555385658437
 21
-80.57196017326104
 31
-978.3598194411032
210
0.9996827586307839
220
-0.0000000000000407
230
0.0251869429734098
  0
LINE
  5
72D
330
1F
100
AcDbEntity
  8
sideiii
100
AcDbLine
 10
1052.555385658437
 20
-80.57196017326104
 30
-978.3598194411032
 11
1052.566226179475
 21
-80.58943017326104
 31
-977.3266286306506
210
0.9996827586307839
220
-0.0000000000000407
230
0.0251869429734098
  0
LINE
  5
72E
330
1F
100
AcDbEntity
  8
sideiii
100
AcDbLine
 10
1052.572210733739
 20
-80.58513017326104
 30
-978.3320168487588
 11
1052.54815587428
 21
-80.60035017326104
 31
-977.75921099942
210
0.9996827586307839
220
-0.0000000000000407
230
0.0251869429734098
  0
LINE
  5
72F
330
1F
100
AcDbEntity
  8
sideiii
100
AcDbLine
 10
1052.54815587428
 20
-80.60035017326104
 30
-977.75921099942
 11
1052.553455206246
 21
-81.06831017326104
 31
-977.7642791332697
210
0.9996827586307839
220
-0.0000000000000407
230
0.0251869429734098
  0
LINE
  5
730
330
1F
100
AcDbEntity
  8
sideiii
100
AcDbLine
 10
1052.553455206246
 20
-81.06831017326104
 30
-977.7642791332697
 11
1052.55159693957
 21
-81.04705017326102
 31
-978.3269644443851
210
0.9996827586307839
220
-0.0000000000000407
230
0.0251869429734098
  0
LINE
  5
731
330
1F
100
AcDbEntity
  8
sideiii
100
AcDbLine
 10
1052.55159693957
 20
-81.04705017326102
 30
-978.3269644443851
 11
1052.572210733739
 21
-80.58513017326104
 31
-978.3320168487588
210
0.9996827586307839
220
-0.0000000000000407
230
0.0251869429734098
  0
LINE
  5
732
330
1F
100
AcDbEntity
  8
sideiii
100
AcDbLine
 10
1052.540113804075
 20
-80.99241017326102
 30
-978.3643055155966
 11
1052.55672832743
 21
-79.88770017326103
 31
-978.3718194302689
210
0.9996827586307839
220
-0.0000000000000407
230
0.0251869429734098
  0
LINE
  5
733
330
1F
100
AcDbEntity
  8
sideiii
100
AcDbLine
 10
1052.55672832743
 20
-79.88770017326103
 30
-978.3718194302689
 11
1052.5617589738
 21
-79.88998017326102
 31
-978.8783934298949
210
0.9996827586307839
220
-0.0000000000000407
230
0.0251869429734098
  0
LINE
  5
734
330
1F
100
AcDbEntity
  8
sideiii
100
AcDbLine
 10
1052.5617589738
 20
-79.88998017326102
 30
-978.8783934298949
 11
1052.559092285466
 21
-80.28932017326102
 31
-978.8821317815816
210
0.9996827586307839
220
-0.0000000000000407
230
0.0251869429734098
  0
LINE
  5
735
330
1F
100
AcDbEntity
  8
sideiii
100
AcDbLine
 10
1052.559092285466
 20
-80.28932017326102
 30
-978.8821317815816
 11
1052.559879448678
 21
-80.79233017326101
 31
-978.9419609356295
210
0.9996827586307839
220
-0.0000000000000407
230
0.0251869429734098
  0
LINE
  5
736
330
1F
100
AcDbEntity
  8
sideiii
100
AcDbLine
 10
1052.559879448678
 20
-80.79233017326101
 30
-978.9419609356295
 11
1052.548362566034
 21
-80.80207017326101
 31
-978.8445601111249
210
0.9996827586307839
220
-0.0000000000000407
230
0.0251869429734098
  0
LINE
  5
737
330
1F
100
AcDbEntity
  8
sideiii
100
AcDbLine
 10
1052.548362566034
 20
-80.80207017326101
 30
-978.8445601111249
 11
1052.549791593135
 21
-80.93134017326102
 31
-978.7456427376177
210
0.9996827586307839
220
-0.0000000000000407
230
0.0251869429734098
  0
LINE
  5
738
330
1F
100
AcDbEntity
  8
sideiii
100
AcDbLine
 10
1052.549791593135
 20
-80.93134017326102
 30
-978.7456427376177
 11
1052.544312108312
 21
-80.98279017326101
 31
-978.7433500217453
210
0.9996827586307839
220
-0.0000000000000407
230
0.0251869429734098
  0
LINE
  5
739
330
1F
100
AcDbEntity
  8
sideiii
100
AcDbLine
 10
1052.544312108312
 20
-80.98279017326101
 30
-978.7433500217453
 11
1052.540113804075
 21
-80.99241017326102
 31
-978.3643055155966
210
0.9996827586307839
220
-0.0000000000000407
230
0.0251869429734098
  0
LINE
  5
73A
330
1F
100
AcDbEntity
  8
sideiii
100
AcDbLine
 10
1052.56800723746
 20
-81.50641017326099
 30
-979.0950247796605
 11
1052.578866732093
 21
-81.463770173261
 31
-979.0392835787734
210
0.9996827586307839
220
-0.0000000000000407
230
0.0251869429734098
  0
LINE
  5
73B
330
1F
100
AcDbEntity
  8
sideiii
100
AcDbLine
 10
1052.578866732093
 20
-81.463770173261
 30
-979.0392835787734
 11
1052.546881934197
 21
-81.34297017326099
 31
-979.0005869018672
210
0.9996827586307839
220
-0.0000000000000407
230
0.0251869429734098
  0
LINE
  5
73C
330
1F
100
AcDbEntity
  8
sideiii
100
AcDbLine
 10
1052.546881934197
 20
-81.34297017326099
 30
-979.0005869018672
 11
1052.550727186646
 21
-81.29004017326101
 31
-979.0003499765505
210
0.9996827586307839
220
-0.0000000000000407
230
0.0251869429734098
  0
LINE
  5
73D
330
1F
100
AcDbEntity
  8
sideiii
100
AcDbLine
 10
1052.550727186646
 20
-81.29004017326101
 30
-979.0003499765505
 11
1052.562237534515
 21
-81.18904017326102
 31
-979.0244377077002
210
0.9996827586307839
220
-0.0000000000000407
230
0.0251869429734098
  0
LINE
  5
73E
330
1F
100
AcDbEntity
  8
sideiii
100
AcDbLine
 10
1052.562237534515
 20
-81.18904017326102
 30
-979.0244377077002
 11
1052.577678951484
 21
-81.07513017326098
 31
-979.0064330737969
210
0.9996827586307839
220
-0.0000000000000407
230
0.0251869429734098
  0
LINE
  5
73F
330
1F
100
AcDbEntity
  8
sideiii
100
AcDbLine
 10
1052.577678951484
 20
-81.07513017326098
 30
-979.0064330737969
 11
1052.586146360839
 21
-81.038930173261
 31
-978.988754197169
210
0.9996827586307839
220
-0.0000000000000407
230
0.0251869429734098
  0
LINE
  5
740
330
1F
100
AcDbEntity
  8
sideiii
100
AcDbLine
 10
1052.586146360839
 20
-81.038930173261
 30
-978.988754197169
 11
1052.591498544735
 21
-80.87110017326102
 31
-978.9431149133498
210
0.9996827586307839
220
-0.0000000000000407
230
0.0251869429734098
  0
LINE
  5
741
330
1F
100
AcDbEntity
  8
sideiii
100
AcDbLine
 10
1052.591498544735
 20
-80.87110017326102
 30
-978.9431149133498
 11
1052.56216589757
 21
-80.63912017326101
 31
-978.9453644266998
210
0.9996827586307839
220
-0.0000000000000407
230
0.0251869429734098
  0
LINE
  5
742
330
1F
100
AcDbEntity
  8
sideiii
100
AcDbLine
 10
1052.56216589757
 20
-80.63912017326101
 30
-978.9453644266998
 11
1052.560108440313
 21
-80.64947017326099
 31
-979.4143850405001
210
0.9996827586307839
220
-0.0000000000000407
230
0.0251869429734098
  0
LINE
  5
743
330
1F
100
AcDbEntity
  8
sideiii
100
AcDbLine
 10
1052.560108440313
 20
-80.64947017326099
 30
-979.4143850405001
 11
1052.562689372343
 21
-80.79530017326101
 31
-979.4374173415111
210
0.9996827586307839
220
-0.0000000000000407
230
0.0251869429734098
  0
LINE
  5
744
330
1F
100
AcDbEntity
  8
sideiii
100
AcDbLine
 10
1052.562689372343
 20
-80.79530017326101
 30
-979.4374173415111
 11
1052.568889419563
 21
-80.93140017326101
 31
-979.4706917372902
210
0.9996827586307839
220
-0.0000000000000407
230
0.0251869429734098
  0
LINE
  5
745
330
1F
100
AcDbEntity
  8
sideiii
100
AcDbLine
 10
1052.568889419563
 20
-80.93140017326101
 30
-979.4706917372902
 11
1052.565796286112
 21
-81.24794017326101
 31
-979.4650478533924
210
0.9996827586307839
220
-0.0000000000000407
230
0.0251869429734098
  0
LINE
  5
746
330
1F
100
AcDbEntity
  8
sideiii
100
AcDbLine
 10
1052.565796286112
 20
-81.24794017326101
 30
-979.4650478533924
 11
1052.560638708859
 21
-81.36858017326099
 31
-979.4576654149819
210
0.9996827586307839
220
-0.0000000000000407
230
0.0251869429734098
  0
LINE
  5
747
330
1F
100
AcDbEntity
  8
sideiii
100
AcDbLine
 10
1052.581519006869
 20
-81.49302017326098
 30
-979.3938892716756
 11
1052.565983854244
 21
-81.510170173261
 31
-979.1000773453811
210
0.9996827586307839
220
-0.0000000000000407
230
0.0251869429734098
  0
LINE
  5
748
330
1F
100
AcDbEntity
  8
sideiii
100
AcDbLine
 10
1052.56457437741
 20
-80.63039017326103
 30
-978.9452737356844
 11
1052.570480655191
 21
-80.21043017326098
 31
-978.9561684308507
210
0.9996827586307839
220
-0.0000000000000407
230
0.0251869429734098
  0
LINE
  5
749
330
1F
100
AcDbEntity
  8
sideiii
100
AcDbLine
 10
1052.570480655191
 20
-80.21043017326098
 30
-978.9561684308507
 11
1052.571537507701
 21
-80.07362017326101
 31
-978.9032250161254
210
0.9996827586307839
220
-0.0000000000000407
230
0.0251869429734098
  0
LINE
  5
74A
330
1F
100
AcDbEntity
  8
sideiii
100
AcDbLine
 10
1052.571537507701
 20
-80.07362017326101
 30
-978.9032250161254
 11
1052.564861117973
 21
-79.71651017326101
 31
-978.9880200744732
210
0.9996827586307839
220
-0.0000000000000407
230
0.0251869429734098
  0
LINE
  5
74B
330
1F
100
AcDbEntity
  8
sideiii
100
AcDbLine
 10
1052.564861117973
 20
-79.71651017326101
 30
-978.9880200744732
 11
1052.563379230558
 21
-79.71914017326099
 31
-979.4711506676982
210
0.9996827586307839
220
-0.0000000000000407
230
0.0251869429734098
  0
LINE
  5
74C
330
1F
100
AcDbEntity
  8
sideiii
100
AcDbLine
 10
1052.563379230558
 20
-79.71914017326099
 30
-979.4711506676982
 11
1052.5708520046
 21
-79.94135017326098
 31
-979.5307213496492
210
0.9996827586307839
220
-0.0000000000000407
230
0.0251869429734098
  0
LINE
  5
74D
330
1F
100
AcDbEntity
  8
sideiii
100
AcDbLine
 10
1052.5708520046
 20
-79.94135017326098
 30
-979.5307213496492
 11
1052.561403266687
 21
-80.63257017326099
 31
-979.4014583268936
210
0.9996827586307839
220
-0.0000000000000407
230
0.0251869429734098
  0
LINE
  5
74E
330
1F
100
AcDbEntity
  8
sideiii
100
AcDbLine
 10
1052.561403266687
 20
-80.63257017326099
 30
-979.4014583268936
 11
1052.56457437741
 21
-80.63039017326103
 31
-978.9452737356844
210
0.9996827586307839
220
-0.0000000000000407
230
0.0251869429734098
  0
LINE
  5
74F
330
1F
100
AcDbEntity
  8
sideiii
100
AcDbLine
 10
1052.557958722993
 20
-80.30168017326099
 30
-979.5573545411478
 11
1052.570738302525
 21
-79.66918017326097
 31
-979.5667056291589
210
0.9996827586307839
220
-0.0000000000000407
230
0.0251869429734098
  0
LINE
  5
750
330
1F
100
AcDbEntity
  8
sideiii
100
AcDbLine
 10
1052.570738302525
 20
-79.66918017326097
 30
-979.5667056291589
 11
1052.57270041064
 21
-79.67022017326098
 31
-979.9911908739339
210
0.9996827586307839
220
-0.0000000000000407
230
0.0251869429734098
  0
LINE
  5
751
330
1F
100
AcDbEntity
  8
sideiii
100
AcDbLine
 10
1052.57270041064
 20
-79.67022017326098
 30
-979.9911908739339
 11
1052.56501963268
 21
-80.534890173261
 31
-979.9928448539613
210
0.9996827586307839
220
-0.0000000000000407
230
0.0251869429734098
  0
LINE
  5
752
330
1F
100
AcDbEntity
  8
sideiii
100
AcDbLine
 10
1052.56501963268
 20
-80.534890173261
 30
-979.9928448539613
 11
1052.56740450385
 21
-80.46540017326099
 31
-979.7099250324757
210
0.9996827586307839
220
-0.0000000000000407
230
0.0251869429734098
  0
LINE
  5
753
330
1F
100
AcDbEntity
  8
sideiii
100
AcDbLine
 10
1052.519550167135
 20
-81.21724017326105
 30
-977.4377495088513
 11
1052.527124314224
 21
-81.86678017326105
 31
-977.4378187612102
210
0.9996827586307839
220
-0.0000000000000407
230
0.0251869429734098
  0
INSERT
  5
754
330
1F
100
AcDbEntity
  8
INST_CTRL
100
AcDbBlockReference
 66
     1
  2
ipos_id
 10
-1047.863692945561
 20
-979.4538659147105
 30
-84.12743017324393
 41
6.000000000000079
 42
6.0
 43
6.0
 50
358.5567418451611
210
0.0000000000000401
220
1.0
230
0.0000000000000257
  0
ATTRIB
  5
755
330
754
100
AcDbEntity
  8
INST_ID
100
AcDbText
 10
-1047.519809026105
 20
-979.4625300480008
 30
-84.12743017324393
 40
0.3
  1
STA163
 50
358.5567418451622
210
0.0000000000000401
220
1.0
230
0.0000000000000257
100
AcDbAttribute
  2
ID
 70
     0
  0
SEQEND
  5
756
330
754
100
AcDbEntity
  8
INST_CTRL
  0
LINE
  5
757
330
1F
100
AcDbEntity
  8
sideiii
100
AcDbLine
 10
1052.538024966222
 20
-81.76544017326099
 30
-979.9795005337156
 11
1052.542009088829
 21
-82.216540173261
 31
-979.9788199699436
210
0.0000000000000401
220
1.0
230
0.0000000000000257
  0
LINE
  5
758
330
1F
100
AcDbEntity
  8
sideiii
100
AcDbLine
 10
1052.542009088829
 20
-82.216540173261
 30
-979.9788199699436
 11
1052.535267061762
 21
-82.231400173261
 31
-979.8767874120466
210
0.0000000000000401
220
1.0
230
0.0000000000000257
  0
LINE
  5
759
330
1F
100
AcDbEntity
  8
sideiii
100
AcDbLine
 10
1052.535267061762
 20
-82.231400173261
 30
-979.8767874120466
 11
1052.53389424052
 21
-82.23213017326097
 31
-979.8588262912064
210
0.0000000000000401
220
1.0
230
0.0000000000000257
  0
LINE
  5
75A
330
1F
100
AcDbEntity
  8
sideiii
100
AcDbLine
 10
1052.53389424052
 20
-82.23213017326097
 30
-979.8588262912064
 11
1052.526476488843
 21
-82.22544017326098
 31
-979.766103706255
210
0.0000000000000401
220
1.0
230
0.0000000000000257
  0
LINE
  5
75B
330
1F
100
AcDbEntity
  8
sideiii
100
AcDbLine
 10
1052.526476488843
 20
-82.22544017326098
 30
-979.766103706255
 11
1052.537873373944
 21
-81.54568017326102
 31
-978.8947502241882
210
0.0000000000000401
220
1.0
230
0.0000000000000257
  0
LINE
  5
75C
330
1F
100
AcDbEntity
  8
sideiii
100
AcDbLine
 10
1052.537873373944
 20
-81.54568017326102
 30
-978.8947502241882
 11
1052.523244641561
 21
-81.45028017326101
 31
-978.7905656255716
210
0.0000000000000401
220
1.0
230
0.0000000000000257
  0
LINE
  5
75D
330
1F
100
AcDbEntity
  8
sideiii
100
AcDbLine
 10
1052.523244641561
 20
-81.45028017326101
 30
-978.7905656255716
 11
1052.542149907741
 21
-81.284710173261
 31
-978.7953009619551
210
0.0000000000000401
220
1.0
230
0.0000000000000257
  0
LINE
  5
75E
330
1F
100
AcDbEntity
  8
sideiii
100
AcDbLine
 10
1052.542149907741
 20
-81.284710173261
 30
-978.7953009619551
 11
1052.529564837203
 21
-81.21805017326099
 31
-979.0390352640129
210
0.0000000000000401
220
1.0
230
0.0000000000000257
  0
LINE
  5
75F
330
1F
100
AcDbEntity
  8
sideiii
100
AcDbLine
 10
1052.529564837203
 20
-81.21805017326099
 30
-979.0390352640129
 11
1052.527709266916
 21
-81.227200173261
 31
-979.2127371055659
210
0.0000000000000401
220
1.0
230
0.0000000000000257
  0
LINE
  5
760
330
1F
100
AcDbEntity
  8
sideiii
100
AcDbLine
 10
1052.527709266916
 20
-81.227200173261
 30
-979.2127371055659
 11
1052.537176105476
 21
-81.765170173261
 31
-979.9775713018908
210
0.0000000000000401
220
1.0
230
0.0000000000000257
  0
LINE
  5
761
330
1F
100
AcDbEntity
  8
sideiii
100
AcDbLine
 10
1052.537176105476
 20
-81.765170173261
 30
-979.9775713018908
 11
1052.538024966222
 21
-81.76544017326099
 31
-979.9795005337156
210
0.0000000000000401
220
1.0
230
0.0000000000000257
  0
LINE
  5
762
330
1F
100
AcDbEntity
  8
sideiii
100
AcDbLine
 10
1052.518744114116
 20
-81.14884017326099
 30
-979.2694208928006
 11
1052.516534059611
 21
-80.968910173261
 31
-979.2694465654616
210
0.9996827586307839
220
-0.0000000000000407
230
0.0251869429734098
  0
LINE
  5
763
330
1F
100
AcDbEntity
  8
sideiii
100
AcDbLine
 10
1052.516534059611
 20
-80.968910173261
 30
-979.2694465654616
 11
1052.490698981153
 21
-80.634010173261
 31
-978.8594372001771
210
0.9996827586307839
220
-0.0000000000000407
230
0.0251869429734098
  0
LINE
  5
764
330
1F
100
AcDbEntity
  8
sideiii
100
AcDbLine
 10
1052.490698981153
 20
-80.634010173261
 30
-978.8594372001771
 11
1052.476206290532
 21
-80.57592017326101
 31
-978.6697320444259
210
0.9996827586307839
220
-0.0000000000000407
230
0.0251869429734098
  0
LINE
  5
765
330
1F
100
AcDbEntity
  8
sideiii
100
AcDbLine
 10
1052.476206290532
 20
-80.57592017326101
 30
-978.6697320444259
 11
1052.47884320086
 21
-80.56544017326102
 31
-978.5631718234053
210
0.9996827586307839
220
-0.0000000000000407
230
0.0251869429734098
  0
LINE
  5
766
330
1F
100
AcDbEntity
  8
sideiii
100
AcDbLine
 10
1052.47884320086
 20
-80.56544017326102
 30
-978.5631718234053
 11
1052.486143070102
 21
-80.53948017326101
 31
-978.474139717348
210
0.9996827586307839
220
-0.0000000000000407
230
0.0251869429734098
  0
LINE
  5
767
330
1F
100
AcDbEntity
  8
sideiii
100
AcDbLine
 10
1052.486143070102
 20
-80.53948017326101
 30
-978.474139717348
 11
1052.490168167802
 21
-80.51399017326103
 31
-978.3027739731384
210
0.9996827586307839
220
-0.0000000000000407
230
0.0251869429734098
  0
LINE
  5
768
330
1F
100
AcDbEntity
  8
sideiii
100
AcDbLine
 10
1052.490168167802
 20
-80.51399017326103
 30
-978.3027739731384
 11
1052.486329461865
 21
-80.52453017326101
 31
-978.1480315677134
210
0.9996827586307839
220
-0.0000000000000407
230
0.0251869429734098
  0
LINE
  5
769
330
1F
100
AcDbEntity
  8
sideiii
100
AcDbLine
 10
1052.486329461865
 20
-80.52453017326101
 30
-978.1480315677134
 11
1052.471611454132
 21
-80.56617017326102
 31
-978.0256134332381
210
0.9996827586307839
220
-0.0000000000000407
230
0.0251869429734098
  0
LINE
  5
76A
330
1F
100
AcDbEntity
  8
sideiii
100
AcDbLine
 10
1052.471611454132
 20
-80.56617017326102
 30
-978.0256134332381
 11
1052.463396497992
 21
-80.56924017326101
 31
-977.9703328055681
210
0.9996827586307839
220
-0.0000000000000407
230
0.0251869429734098
  0
LINE
  5
76B
330
1F
100
AcDbEntity
  8
sideiii
100
AcDbLine
 10
1052.463396497992
 20
-80.56924017326101
 30
-977.9703328055681
 11
1052.469937640961
 21
-80.54716017326104
 31
-977.8353052178362
210
0.9996827586307839
220
-0.0000000000000407
230
0.0251869429734098
  0
LINE
  5
76C
330
1F
100
AcDbEntity
  8
sideiii
100
AcDbLine
 10
1052.469937640961
 20
-80.54716017326104
 30
-977.8353052178362
 11
1052.48588847873
 21
-80.49578017326103
 31
-977.7227777666322
210
0.9996827586307839
220
-0.0000000000000407
230
0.0251869429734098
  0
LINE
  5
76D
330
1F
100
AcDbEntity
  8
sideiii
100
AcDbLine
 10
1052.48588847873
 20
-80.49578017326103
 30
-977.7227777666322
 11
1052.485230917221
 21
-80.53631017326106
 31
-977.3147348805125
210
0.9996827586307839
220
-0.0000000000000407
230
0.0251869429734098
  0
LINE
  5
76E
330
1F
100
AcDbEntity
  8
sideiii
100
AcDbLine
 10
1052.485230917221
 20
-80.53631017326106
 30
-977.3147348805125
 11
1052.473568593183
 21
-80.54744017326106
 31
-977.1635206473929
210
0.9996827586307839
220
-0.0000000000000407
230
0.0251869429734098
  0
LINE
  5
76F
330
1F
100
AcDbEntity
  8
sideiii
100
AcDbLine
 10
1052.473568593183
 20
-80.54744017326106
 30
-977.1635206473929
 11
1052.464558121489
 21
-80.52367017326105
 31
-976.9952742189021
210
0.9996827586307839
220
-0.0000000000000407
230
0.0251869429734098
  0
LINE
  5
770
330
1F
100
AcDbEntity
  8
sideiii
100
AcDbLine
 10
1052.464558121489
 20
-80.52367017326105
 30
-976.9952742189021
 11
1052.465045951085
 21
-80.94684017326105
 31
-976.9951819026795
210
0.9996827586307839
220
-0.0000000000000407
230
0.0251869429734098
  0
LINE
  5
771
330
1F
100
AcDbEntity
  8
sideiii
100
AcDbLine
 10
1052.465045951085
 20
-80.94684017326105
 30
-976.9951819026795
 11
1052.486342214592
 21
-81.15632017326104
 31
-977.7773136394479
210
0.9996827586307839
220
-0.0000000000000407
230
0.0251869429734098
  0
LINE
  5
772
330
1F
100
AcDbEntity
  8
sideiii
100
AcDbLine
 10
1052.486342214592
 20
-81.15632017326104
 30
-977.7773136394479
 11
1052.484513261581
 21
-81.19408017326103
 31
-978.0684020504692
210
0.9996827586307839
220
-0.0000000000000407
230
0.0251869429734098
  0
LINE
  5
773
330
1F
100
AcDbEntity
  8
sideiii
100
AcDbLine
 10
1052.484513261581
 20
-81.19408017326103
 30
-978.0684020504692
 11
1052.499553054093
 21
-81.17309017326105
 31
-978.2992764869955
210
0.9996827586307839
220
-0.0000000000000407
230
0.0251869429734098
  0
LINE
  5
774
330
1F
100
AcDbEntity
  8
sideiii
100
AcDbLine
 10
1052.499553054093
 20
-81.17309017326105
 30
-978.2992764869955
 11
1052.481283197065
 21
-81.07724017326104
 31
-978.6953523004756
210
0.9996827586307839
220
-0.0000000000000407
230
0.0251869429734098
  0
LINE
  5
775
330
1F
100
AcDbEntity
  8
sideiii
100
AcDbLine
 10
1052.481283197065
 20
-81.07724017326104
 30
-978.6953523004756
 11
1052.484283039085
 21
-81.030170173261
 31
-978.8481652222063
210
0.9996827586307839
220
-0.0000000000000407
230
0.0251869429734098
  0
LINE
  5
776
330
1F
100
AcDbEntity
  8
sideiii
100
AcDbLine
 10
1052.484283039085
 20
-81.030170173261
 30
-978.8481652222063
 11
1052.482540994022
 21
-81.03139017326103
 31
-978.8643842443409
210
0.9996827586307839
220
-0.0000000000000407
230
0.0251869429734098
  0
LINE
  5
777
330
1F
100
AcDbEntity
  8
sideiii
100
AcDbLine
 10
1052.482540994022
 20
-81.03139017326103
 30
-978.8643842443409
 11
1052.520491214588
 21
-81.15005017326101
 31
-979.2522114291267
210
0.9996827586307839
220
-0.0000000000000407
230
0.0251869429734098
  0
LINE
  5
778
330
1F
100
AcDbEntity
  8
sideiii
100
AcDbLine
 10
1052.520491214588
 20
-81.15005017326101
 30
-979.2522114291267
 11
1052.520258924339
 21
-81.15036017326099
 31
-979.2695927938959
210
0.9996827586307839
220
-0.0000000000000407
230
0.0251869429734098
  0
LINE
  5
779
330
1F
100
AcDbEntity
  8
sideiii
100
AcDbLine
 10
1052.520258924339
 20
-81.15036017326099
 30
-979.2695927938959
 11
1052.518744114116
 21
-81.14884017326099
 31
-979.2694208928006
210
0.9996827586307839
220
-0.0000000000000407
230
0.0251869429734098
  0
LINE
  5
77A
330
1F
100
AcDbEntity
  8
sideiii
100
AcDbLine
 10
1052.520702761867
 20
-81.426180173261
 30
-978.5074398285352
 11
1052.529833037919
 21
-81.47281017326102
 31
-978.5029684462854
210
0.9996827586307839
220
-0.0000000000000407
230
0.0251869429734098
  0
LINE
  5
77B
330
1F
100
AcDbEntity
  8
sideiii
100
AcDbLine
 10
1052.529833037919
 20
-81.47281017326102
 30
-978.5029684462854
 11
1052.519939538405
 21
-81.55103017326101
 31
-978.4422083576798
210
0.9996827586307839
220
-0.0000000000000407
230
0.0251869429734098
  0
LINE
  5
77C
330
1F
100
AcDbEntity
  8
sideiii
100
AcDbLine
 10
1052.519939538405
 20
-81.55103017326101
 30
-978.4422083576798
 11
1052.509518144034
 21
-81.571170173261
 31
-978.3811414678016
210
0.9996827586307839
220
-0.0000000000000407
230
0.0251869429734098
  0
LINE
  5
77D
330
1F
100
AcDbEntity
  8
sideiii
100
AcDbLine
 10
1052.509518144034
 20
-81.571170173261
 30
-978.3811414678016
 11
1052.503458749757
 21
-81.57423017326101
 31
-978.2796018728598
210
0.9996827586307839
220
-0.0000000000000407
230
0.0251869429734098
  0
LINE
  5
77E
330
1F
100
AcDbEntity
  8
sideiii
100
AcDbLine
 10
1052.503458749757
 20
-81.57423017326101
 30
-978.2796018728598
 11
1052.506826647194
 21
-81.54406017326101
 31
-978.1202664980465
210
0.9996827586307839
220
-0.0000000000000407
230
0.0251869429734098
  0
LINE
  5
77F
330
1F
100
AcDbEntity
  8
sideiii
100
AcDbLine
 10
1052.506826647194
 20
-81.54406017326101
 30
-978.1202664980465
 11
1052.509914205992
 21
-81.53242017326101
 31
-978.0280194673048
210
0.9996827586307839
220
-0.0000000000000407
230
0.0251869429734098
  0
LINE
  5
780
330
1F
100
AcDbEntity
  8
sideiii
100
AcDbLine
 10
1052.509914205992
 20
-81.53242017326101
 30
-978.0280194673048
 11
1052.516209311922
 21
-81.50877017326104
 31
-977.9860576007909
210
0.9996827586307839
220
-0.0000000000000407
230
0.0251869429734098
  0
LINE
  5
781
330
1F
100
AcDbEntity
  8
sideiii
100
AcDbLine
 10
1052.516209311922
 20
-81.50877017326104
 30
-977.9860576007909
 11
1052.5118508753
 21
-81.49656017326103
 31
-977.9742636349517
210
0.9996827586307839
220
-0.0000000000000407
230
0.0251869429734098
  0
LINE
  5
782
330
1F
100
AcDbEntity
  8
sideiii
100
AcDbLine
 10
1052.5118508753
 20
-81.49656017326103
 30
-977.9742636349517
 11
1052.512526983372
 21
-81.46128017326104
 31
-977.9784679396355
210
0.9996827586307839
220
-0.0000000000000407
230
0.0251869429734098
  0
LINE
  5
783
330
1F
100
AcDbEntity
  8
sideiii
100
AcDbLine
 10
1052.512526983372
 20
-81.46128017326104
 30
-977.9784679396355
 11
1052.493701743781
 21
-81.37440017326103
 31
-977.8149202057646
210
0.9996827586307839
220
-0.0000000000000407
230
0.0251869429734098
  0
LINE
  5
784
330
1F
100
AcDbEntity
  8
sideiii
100
AcDbLine
 10
1052.493701743781
 20
-81.37440017326103
 30
-977.8149202057646
 11
1052.498611797924
 21
-81.31191017326106
 31
-977.6306380745955
210
0.9996827586307839
220
-0.0000000000000407
230
0.0251869429734098
  0
LINE
  5
785
330
1F
100
AcDbEntity
  8
sideiii
100
AcDbLine
 10
1052.498611797924
 20
-81.31191017326106
 30
-977.6306380745955
 11
1052.505697319995
 21
-81.25715017326104
 31
-977.544612321027
210
0.9996827586307839
220
-0.0000000000000407
230
0.0251869429734098
  0
LINE
  5
786
330
1F
100
AcDbEntity
  8
sideiii
100
AcDbLine
 10
1052.505697319995
 20
-81.25715017326104
 30
-977.544612321027
 11
1052.513084851115
 21
-81.18839017326104
 31
-977.4860576757461
210
0.9996827586307839
220
-0.0000000000000407
230
0.0251869429734098
  0
LINE
  5
787
330
1F
100
AcDbEntity
  8
sideiii
100
AcDbLine
 10
1052.513084851115
 20
-81.18839017326104
 30
-977.4860576757461
 11
1052.52302066637
 21
-81.17102017326104
 31
-977.4817960709766
210
0.9996827586307839
220
-0.0000000000000407
230
0.0251869429734098
  0
LINE
  5
788
330
1F
100
AcDbEntity
  8
sideiii
100
AcDbLine
 10
1052.52302066637
 20
-81.17102017326104
 30
-977.4817960709766
 11
1052.489771604212
 21
-81.23005017326105
 31
-977.6180367343837
210
0.9996827586307839
220
-0.0000000000000407
230
0.0251869429734098
  0
LINE
  5
789
330
1F
100
AcDbEntity
  8
sideiii
100
AcDbLine
 10
1052.489771604212
 20
-81.23005017326105
 30
-977.6180367343837
 11
1052.499023552474
 21
-81.24754017326102
 31
-977.805793270231
210
0.9996827586307839
220
-0.0000000000000407
230
0.0251869429734098
  0
LINE
  5
78A
330
1F
100
AcDbEntity
  8
sideiii
100
AcDbLine
 10
1052.499023552474
 20
-81.24754017326102
 30
-977.805793270231
 11
1052.471258690672
 21
-81.25720017326102
 31
-977.865901651087
210
0.9996827586307839
220
-0.0000000000000407
230
0.0251869429734098
  0
LINE
  5
78B
330
1F
100
AcDbEntity
  8
sideiii
100
AcDbLine
 10
1052.471258690672
 20
-81.25720017326102
 30
-977.865901651087
 11
1052.482514576236
 21
-81.38423017326102
 31
-978.2066462480216
210
0.9996827586307839
220
-0.0000000000000407
230
0.0251869429734098
  0
LINE
  5
78C
330
1F
100
AcDbEntity
  8
sideiii
100
AcDbLine
 10
1052.482514576236
 20
-81.38423017326102
 30
-978.2066462480216
 11
1052.515576891666
 21
-81.44444017326103
 31
-978.4421582235095
210
0.9996827586307839
220
-0.0000000000000407
230
0.0251869429734098
  0
LINE
  5
78D
330
1F
100
AcDbEntity
  8
sideiii
100
AcDbLine
 10
1052.515576891666
 20
-81.44444017326103
 30
-978.4421582235095
 11
1052.514898731759
 21
-81.444190173261
 31
-978.4736052805923
210
0.9996827586307839
220
-0.0000000000000407
230
0.0251869429734098
  0
LINE
  5
78E
330
1F
100
AcDbEntity
  8
sideiii
100
AcDbLine
 10
1052.514898731759
 20
-81.444190173261
 30
-978.4736052805923
 11
1052.517493834274
 21
-81.42452017326101
 31
-978.503949544349
210
0.9996827586307839
220
-0.0000000000000407
230
0.0251869429734098
  0
LINE
  5
78F
330
1F
100
AcDbEntity
  8
sideiii
100
AcDbLine
 10
1052.517493834274
 20
-81.42452017326101
 30
-978.503949544349
 11
1052.520702761867
 21
-81.426180173261
 31
-978.5074398285352
210
0.9996827586307839
220
-0.0000000000000407
230
0.0251869429734098
  0
LINE
  5
790
330
1F
100
AcDbEntity
  8
sideiii
100
AcDbLine
 10
1052.517155144499
 20
-81.21740017326104
 30
-977.4312277631823
 11
1052.527402942161
 21
-81.86768017326105
 31
-977.4337904654821
210
0.9996827586307839
220
-0.0000000000000407
230
0.0251869429734098
  0
LINE
  5
791
330
1F
100
AcDbEntity
  8
sideiii
100
AcDbLine
 10
1052.527402942161
 20
-81.86768017326105
 30
-977.4337904654821
 11
1052.529526594975
 21
-81.86312017326105
 31
-977.3699867359773
210
0.9996827586307839
220
-0.0000000000000407
230
0.0251869429734098
  0
LINE
  5
792
330
1F
100
AcDbEntity
  8
sideiii
100
AcDbLine
 10
1052.529526594975
 20
-81.86312017326105
 30
-977.3699867359773
 11
1052.521401990812
 21
-81.75829017326107
 31
-977.206329451058
210
0.9996827586307839
220
-0.0000000000000407
230
0.0251869429734098
  0
LINE
  5
793
330
1F
100
AcDbEntity
  8
sideiii
100
AcDbLine
 10
1052.521401990812
 20
-81.75829017326107
 30
-977.206329451058
 11
1052.520743845096
 21
-81.61740017326108
 31
-977.1365338856959
210
0.9996827586307839
220
-0.0000000000000407
230
0.0251869429734098
  0
LINE
  5
794
330
1F
100
AcDbEntity
  8
sideiii
100
AcDbLine
 10
1052.520743845096
 20
-81.61740017326108
 30
-977.1365338856959
 11
1052.519300170176
 21
-81.50418017326106
 31
-977.1320388214334
210
0.9996827586307839
220
-0.0000000000000407
230
0.0251869429734098
  0
LINE
  5
795
330
1F
100
AcDbEntity
  8
sideiii
100
AcDbLine
 10
1052.519300170176
 20
-81.50418017326106
 30
-977.1320388214334
 11
1052.51734694412
 21
-81.40668017326106
 31
-977.1585364233622
210
0.9996827586307839
220
-0.0000000000000407
230
0.0251869429734098
  0
LINE
  5
796
330
1F
100
AcDbEntity
  8
sideiii
100
AcDbLine
 10
1052.51734694412
 20
-81.40668017326106
 30
-977.1585364233622
 11
1052.515535447214
 21
-81.29891017326105
 31
-977.2454496218935
210
0.9996827586307839
220
-0.0000000000000407
230
0.0251869429734098
  0
LINE
  5
797
330
1F
100
AcDbEntity
  8
sideiii
100
AcDbLine
 10
1052.515535447214
 20
-81.29891017326105
 30
-977.2454496218935
 11
1052.513689358701
 21
-81.21788017326105
 31
-977.3921326531453
210
0.9996827586307839
220
-0.0000000000000407
230
0.0251869429734098
  0
LINE
  5
798
330
1F
100
AcDbEntity
  8
sideiii
100
AcDbLine
 10
1052.513689358701
 20
-81.21788017326105
 30
-977.3921326531453
 11
1052.517155144499
 21
-81.21740017326104
 31
-977.4312277631823
210
0.9996827586307839
220
-0.0000000000000407
230
0.0251869429734098
  0
LINE
  5
799
330
1F
100
AcDbEntity
  8
sideiii
100
AcDbLine
 10
1052.52798501116
 20
-81.49971017326107
 30
-977.0296876067993
 11
1052.525278977554
 21
-81.54421017326106
 31
-977.0187622975534
210
0.9996827586307839
220
-0.0000000000000407
230
0.0251869429734098
  0
LINE
  5
79A
330
1F
100
AcDbEntity
  8
sideiii
100
AcDbLine
 10
1052.525278977554
 20
-81.54421017326106
 30
-977.0187622975534
 11
1052.514405998897
 21
-81.45638017326106
 31
-976.9552560078244
210
0.9996827586307839
220
-0.0000000000000407
230
0.0251869429734098
  0
LINE
  5
79B
330
1F
100
AcDbEntity
  8
sideiii
100
AcDbLine
 10
1052.514405998897
 20
-81.45638017326106
 30
-976.9552560078244
 11
1052.496491050208
 21
-81.40392017326105
 31
-976.8754819229755
210
0.9996827586307839
220
-0.0000000000000407
230
0.0251869429734098
  0
LINE
  5
79C
330
1F
100
AcDbEntity
  8
sideiii
100
AcDbLine
 10
1052.496491050208
 20
-81.40392017326105
 30
-976.8754819229755
 11
1052.47730915596
 21
-81.37097017326103
 31
-976.759318204315
210
0.9996827586307839
220
-0.0000000000000407
230
0.0251869429734098
  0
LINE
  5
79D
330
1F
100
AcDbEntity
  8
sideiii
100
AcDbLine
 10
1052.47730915596
 20
-81.37097017326103
 30
-976.759318204315
 11
1052.504630490366
 21
-81.34129017326108
 31
-976.5752016540368
210
0.9996827586307839
220
-0.0000000000000407
230
0.0251869429734098
  0
LINE
  5
79E
330
1F
100
AcDbEntity
  8
sideiii
100
AcDbLine
 10
1052.504630490366
 20
-81.34129017326108
 30
-976.5752016540368
 11
1052.493633331698
 21
-81.15058017326106
 31
-976.6016570315851
210
0.9996827586307839
220
-0.0000000000000407
230
0.0251869429734098
  0
LINE
  5
79F
330
1F
100
AcDbEntity
  8
sideiii
100
AcDbLine
 10
1052.493633331698
 20
-81.15058017326106
 30
-976.6016570315851
 11
1052.465851388873
 21
-81.20648017326104
 31
-976.7357293070672
210
0.9996827586307839
220
-0.0000000000000407
230
0.0251869429734098
  0
LINE
  5
7A0
330
1F
100
AcDbEntity
  8
sideiii
100
AcDbLine
 10
1052.465851388873
 20
-81.20648017326104
 30
-976.7357293070672
 11
1052.487726128156
 21
-81.28900017326106
 31
-976.9182762607016
210
0.9996827586307839
220
-0.0000000000000407
230
0.0251869429734098
  0
LINE
  5
7A1
330
1F
100
AcDbEntity
  8
sideiii
100
AcDbLine
 10
1052.487726128156
 20
-81.28900017326106
 30
-976.9182762607016
 11
1052.509992635462
 21
-81.39476017326106
 31
-976.9924989819697
210
0.9996827586307839
220
-0.0000000000000407
230
0.0251869429734098
  0
LINE
  5
7A2
330
1F
100
AcDbEntity
  8
sideiii
100
AcDbLine
 10
1052.509992635462
 20
-81.39476017326106
 30
-976.9924989819697
 11
1052.527077662645
 21
-81.49724017326107
 31
-977.0290102452475
210
0.9996827586307839
220
-0.0000000000000407
230
0.0251869429734098
  0
LINE
  5
7A3
330
1F
100
AcDbEntity
  8
sideiii
100
AcDbLine
 10
1052.527077662645
 20
-81.49724017326107
 30
-977.0290102452475
 11
1052.52798501116
 21
-81.49971017326107
 31
-977.0296876067993
210
0.9996827586307839
220
-0.0000000000000407
230
0.0251869429734098
  0
LINE
  5
7A4
330
1F
100
AcDbEntity
  8
sideiii
100
AcDbLine
 10
1052.502579030204
 20
-81.17069017326107
 30
-976.5592882756649
 11
1052.493493456157
 21
-81.33255017326106
 31
-976.5186842322179
210
0.9996827586307839
220
-0.0000000000000407
230
0.0251869429734098
  0
LINE
  5
7A5
330
1F
100
AcDbEntity
  8
sideiii
100
AcDbLine
 10
1052.493493456157
 20
-81.33255017326106
 30
-976.5186842322179
 11
1052.497314135205
 21
-81.22437017326106
 31
-976.2050084900707
210
0.9996827586307839
220
-0.0000000000000407
230
0.0251869429734098
  0
LINE
  5
7A6
330
1F
100
AcDbEntity
  8
sideiii
100
AcDbLine
 10
1052.497314135205
 20
-81.22437017326106
 30
-976.2050084900707
 11
1052.477717285862
 21
-81.16378017326107
 31
-976.0807126430128
210
0.9996827586307839
220
-0.0000000000000407
230
0.0251869429734098
  0
LINE
  5
7A7
330
1F
100
AcDbEntity
  8
sideiii
100
AcDbLine
 10
1052.477717285862
 20
-81.16378017326107
 30
-976.0807126430128
 11
1052.490688709018
 21
-81.04105017326109
 31
-975.9753925206176
210
0.9996827586307839
220
-0.0000000000000407
230
0.0251869429734098
  0
LINE
  5
7A8
330
1F
100
AcDbEntity
  8
sideiii
100
AcDbLine
 10
1052.490688709018
 20
-81.04105017326109
 30
-975.9753925206176
 11
1052.486012629004
 21
-80.98750017326109
 31
-975.9533733113745
210
0.9996827586307839
220
-0.0000000000000407
230
0.0251869429734098
  0
LINE
  5
7A9
330
1F
100
AcDbEntity
  8
sideiii
100
AcDbLine
 10
1052.486012629004
 20
-80.98750017326109
 30
-975.9533733113745
 11
1052.485762972337
 21
-80.97413017326108
 31
-975.9470375895096
210
0.9996827586307839
220
-0.0000000000000407
230
0.0251869429734098
  0
LINE
  5
7AA
330
1F
100
AcDbEntity
  8
sideiii
100
AcDbLine
 10
1052.485762972337
 20
-80.97413017326108
 30
-975.9470375895096
 11
1052.479282077291
 21
-80.94426017326108
 31
-975.9589946167071
210
0.9996827586307839
220
-0.0000000000000407
230
0.0251869429734098
  0
LINE
  5
7AB
330
1F
100
AcDbEntity
  8
sideiii
100
AcDbLine
 10
1052.479282077291
 20
-80.94426017326108
 30
-975.9589946167071
 11
1052.471675405938
 21
-81.02891017326106
 31
-976.0819051978257
210
0.9996827586307839
220
-0.0000000000000407
230
0.0251869429734098
  0
LINE
  5
7AC
330
1F
100
AcDbEntity
  8
sideiii
100
AcDbLine
 10
1052.471675405938
 20
-81.02891017326106
 30
-976.0819051978257
 11
1052.483420872033
 21
-81.04460017326108
 31
-976.1903637729879
210
0.9996827586307839
220
-0.0000000000000407
230
0.0251869429734098
  0
LINE
  5
7AD
330
1F
100
AcDbEntity
  8
sideiii
100
AcDbLine
 10
1052.483420872033
 20
-81.04460017326108
 30
-976.1903637729879
 11
1052.4967529676
 21
-81.05850017326108
 31
-976.282787298823
210
0.9996827586307839
220
-0.0000000000000407
230
0.0251869429734098
  0
LINE
  5
7AE
330
1F
100
AcDbEntity
  8
sideiii
100
AcDbLine
 10
1052.4967529676
 20
-81.05850017326108
 30
-976.282787298823
 11
1052.512009484747
 21
-81.13044017326107
 31
-976.4035513451471
210
0.9996827586307839
220
-0.0000000000000407
230
0.0251869429734098
  0
LINE
  5
7AF
330
1F
100
AcDbEntity
  8
sideiii
100
AcDbLine
 10
1052.512009484747
 20
-81.13044017326107
 30
-976.4035513451471
 11
1052.496707348218
 21
-81.15276017326108
 31
-976.560486545525
210
0.9996827586307839
220
-0.0000000000000407
230
0.0251869429734098
  0
LINE
  5
7B0
330
1F
100
AcDbEntity
  8
sideiii
100
AcDbLine
 10
1052.496707348218
 20
-81.15276017326108
 30
-976.560486545525
 11
1052.502579030204
 21
-81.17069017326107
 31
-976.5592882756649
210
0.9996827586307839
220
-0.0000000000000407
230
0.0251869429734098
  0
LINE
  5
7B1
330
1F
100
AcDbEntity
  8
sideiii
100
AcDbLine
 10
1052.511843479319
 20
-80.73570017326105
 30
-976.8535482839613
 11
1052.494081473628
 21
-80.75293017326107
 31
-976.6095182381599
210
0.9996827586307839
220
-0.0000000000000407
230
0.0251869429734098
  0
LINE
  5
7B2
330
1F
100
AcDbEntity
  8
sideiii
100
AcDbLine
 10
1052.494081473628
 20
-80.75293017326107
 30
-976.6095182381599
 11
1052.490391040419
 21
-80.82734017326107
 31
-976.2383234305415
210
0.9996827586307839
220
-0.0000000000000407
230
0.0251869429734098
  0
LINE
  5
7B3
330
1F
100
AcDbEntity
  8
sideiii
100
AcDbLine
 10
1052.490391040419
 20
-80.82734017326107
 30
-976.2383234305415
 11
1052.491981887552
 21
-80.83919017326108
 31
-976.1490050264729
210
0.9996827586307839
220
-0.0000000000000407
230
0.0251869429734098
  0
LINE
  5
7B4
330
1F
100
AcDbEntity
  8
sideiii
100
AcDbLine
 10
1052.491981887552
 20
-80.83919017326108
 30
-976.1490050264729
 11
1052.502993946331
 21
-80.84786017326109
 31
-975.9706810946479
210
0.9996827586307839
220
-0.0000000000000407
230
0.0251869429734098
  0
LINE
  5
7B5
330
1F
100
AcDbEntity
  8
sideiii
100
AcDbLine
 10
1052.502993946331
 20
-80.84786017326109
 30
-975.9706810946479
 11
1052.500056012642
 21
-80.31245017326108
 31
-975.9624624849333
210
0.9996827586307839
220
-0.0000000000000407
230
0.0251869429734098
  0
LINE
  5
7B6
330
1F
100
AcDbEntity
  8
sideiii
100
AcDbLine
 10
1052.500056012642
 20
-80.31245017326108
 30
-975.9624624849333
 11
1052.473867156112
 21
-80.46120017326106
 31
-976.3920283782415
210
0.9996827586307839
220
-0.0000000000000407
230
0.0251869429734098
  0
LINE
  5
7B7
330
1F
100
AcDbEntity
  8
sideiii
100
AcDbLine
 10
1052.473867156112
 20
-80.46120017326106
 30
-976.3920283782415
 11
1052.465599711386
 21
-80.46309017326107
 31
-976.4855362744734
210
0.9996827586307839
220
-0.0000000000000407
230
0.0251869429734098
  0
LINE
  5
7B8
330
1F
100
AcDbEntity
  8
sideiii
100
AcDbLine
 10
1052.465599711386
 20
-80.46309017326107
 30
-976.4855362744734
 11
1052.494882421767
 21
-80.38678017326105
 31
-976.7465215278361
210
0.9996827586307839
220
-0.0000000000000407
230
0.0251869429734098
  0
LINE
  5
7B9
330
1F
100
AcDbEntity
  8
sideiii
100
AcDbLine
 10
1052.494882421767
 20
-80.38678017326105
 30
-976.7465215278361
 11
1052.496117086969
 21
-80.36413017326106
 31
-976.7455001063567
210
0.9996827586307839
220
-0.0000000000000407
230
0.0251869429734098
  0
LINE
  5
7BA
330
1F
100
AcDbEntity
  8
sideiii
100
AcDbLine
 10
1052.496117086969
 20
-80.36413017326106
 30
-976.7455001063567
 11
1052.476695102902
 21
-80.36108017326105
 31
-976.5515177475327
210
0.9996827586307839
220
-0.0000000000000407
230
0.0251869429734098
  0
LINE
  5
7BB
330
1F
100
AcDbEntity
  8
sideiii
100
AcDbLine
 10
1052.476695102902
 20
-80.36108017326105
 30
-976.5515177475327
 11
1052.488275289015
 21
-80.24207017326109
 31
-976.1630828504271
210
0.9996827586307839
220
-0.0000000000000407
230
0.0251869429734098
  0
LINE
  5
7BC
330
1F
100
AcDbEntity
  8
sideiii
100
AcDbLine
 10
1052.488275289015
 20
-80.24207017326109
 30
-976.1630828504271
 11
1052.490452011263
 21
-80.28395017326108
 31
-975.984261295853
210
0.9996827586307839
220
-0.0000000000000407
230
0.0251869429734098
  0
LINE
  5
7BD
330
1F
100
AcDbEntity
  8
sideiii
100
AcDbLine
 10
1052.490452011263
 20
-80.28395017326108
 30
-975.984261295853
 11
1052.492210835608
 21
-80.28001017326108
 31
-975.969502314285
210
0.9996827586307839
220
-0.0000000000000407
230
0.0251869429734098
  0
LINE
  5
7BE
330
1F
100
AcDbEntity
  8
sideiii
100
AcDbLine
 10
1052.492210835608
 20
-80.28001017326108
 30
-975.969502314285
 11
1052.508730092389
 21
-80.19934017326107
 31
-975.9716469250657
210
0.9996827586307839
220
-0.0000000000000407
230
0.0251869429734098
  0
LINE
  5
7BF
330
1F
100
AcDbEntity
  8
sideiii
100
AcDbLine
 10
1052.508730092389
 20
-80.19934017326107
 30
-975.9716469250657
 11
1052.488112725106
 21
-80.10246017326108
 31
-976.4023928639511
210
0.9996827586307839
220
-0.0000000000000407
230
0.0251869429734098
  0
LINE
  5
7C0
330
1F
100
AcDbEntity
  8
sideiii
100
AcDbLine
 10
1052.488112725106
 20
-80.10246017326108
 30
-976.4023928639511
 11
1052.500985357607
 21
-80.07023017326105
 31
-976.6854184291082
210
0.9996827586307839
220
-0.0000000000000407
230
0.0251869429734098
  0
LINE
  5
7C1
330
1F
100
AcDbEntity
  8
sideiii
100
AcDbLine
 10
1052.500985357607
 20
-80.07023017326105
 30
-976.6854184291082
 11
1052.522386912182
 21
-80.06617017326105
 31
-976.8495814686811
210
0.9996827586307839
220
-0.0000000000000407
230
0.0251869429734098
  0
LINE
  5
7C2
330
1F
100
AcDbEntity
  8
sideiii
100
AcDbLine
 10
1052.522386912182
 20
-80.06617017326105
 30
-976.8495814686811
 11
1052.511843479319
 21
-80.73570017326105
 31
-976.8535482839613
210
0.9996827586307839
220
-0.0000000000000407
230
0.0251869429734098
  0
LINE
  5
7C3
330
1F
100
AcDbEntity
  8
sideiii
100
AcDbLine
 10
1052.519870798183
 20
-79.86984017326105
 30
-976.9232182025191
 11
1052.514475835879
 21
-79.85540017326107
 31
-976.8313749486473
210
0.9996827586307839
220
-0.0000000000000407
230
0.0251869429734098
  0
LINE
  5
7C4
330
1F
100
AcDbEntity
  8
sideiii
100
AcDbLine
 10
1052.514475835879
 20
-79.85540017326107
 30
-976.8313749486473
 11
1052.506045485697
 21
-79.94644017326106
 31
-976.6762280643868
210
0.9996827586307839
220
-0.0000000000000407
230
0.0251869429734098
  0
LINE
  5
7C5
330
1F
100
AcDbEntity
  8
sideiii
100
AcDbLine
 10
1052.506045485697
 20
-79.94644017326106
 30
-976.6762280643868
 11
1052.500782567094
 21
-79.95111017326107
 31
-976.6630764489811
210
0.9996827586307839
220
-0.0000000000000407
230
0.0251869429734098
  0
LINE
  5
7C6
330
1F
100
AcDbEntity
  8
sideiii
100
AcDbLine
 10
1052.500782567094
 20
-79.95111017326107
 30
-976.6630764489811
 11
1052.492531524058
 21
-79.92053017326106
 31
-976.5110760467157
210
0.9996827586307839
220
-0.0000000000000407
230
0.0251869429734098
  0
LINE
  5
7C7
330
1F
100
AcDbEntity
  8
sideiii
100
AcDbLine
 10
1052.492531524058
 20
-79.92053017326106
 30
-976.5110760467157
 11
1052.505657734599
 21
-79.94588017326106
 31
-976.3471834440856
210
0.9996827586307839
220
-0.0000000000000407
230
0.0251869429734098
  0
LINE
  5
7C8
330
1F
100
AcDbEntity
  8
sideiii
100
AcDbLine
 10
1052.505657734599
 20
-79.94588017326106
 30
-976.3471834440856
 11
1052.512897630839
 21
-80.03657017326109
 31
-976.1799380360697
210
0.9996827586307839
220
-0.0000000000000407
230
0.0251869429734098
  0
LINE
  5
7C9
330
1F
100
AcDbEntity
  8
sideiii
100
AcDbLine
 10
1052.512897630839
 20
-80.03657017326109
 30
-976.1799380360697
 11
1052.513148968033
 21
-80.05202017326107
 31
-976.1307561031106
210
0.9996827586307839
220
-0.0000000000000407
230
0.0251869429734098
  0
LINE
  5
7CA
330
1F
100
AcDbEntity
  8
sideiii
100
AcDbLine
 10
1052.513148968033
 20
-80.05202017326107
 30
-976.1307561031106
 11
1052.512642248649
 21
-80.04672017326106
 31
-976.1134233671617
210
0.9996827586307839
220
-0.0000000000000407
230
0.0251869429734098
  0
LINE
  5
7CB
330
1F
100
AcDbEntity
  8
sideiii
100
AcDbLine
 10
1052.512642248649
 20
-80.04672017326106
 30
-976.1134233671617
 11
1052.511209016881
 21
-79.93399017326109
 31
-976.0073058010066
210
0.9996827586307839
220
-0.0000000000000407
230
0.0251869429734098
  0
LINE
  5
7CC
330
1F
100
AcDbEntity
  8
sideiii
100
AcDbLine
 10
1052.511209016881
 20
-79.93399017326109
 30
-976.0073058010066
 11
1052.509964990183
 21
-79.92725017326108
 31
-976.0218517488125
210
0.9996827586307839
220
-0.0000000000000407
230
0.0251869429734098
  0
LINE
  5
7CD
330
1F
100
AcDbEntity
  8
sideiii
100
AcDbLine
 10
1052.509964990183
 20
-79.92725017326108
 30
-976.0218517488125
 11
1052.510176679104
 21
-79.96602017326106
 31
-976.0834559604202
210
0.9996827586307839
220
-0.0000000000000407
230
0.0251869429734098
  0
LINE
  5
7CE
330
1F
100
AcDbEntity
  8
sideiii
100
AcDbLine
 10
1052.510176679104
 20
-79.96602017326106
 30
-976.0834559604202
 11
1052.488691415447
 21
-79.80435017326107
 31
-976.3324561016764
210
0.9996827586307839
220
-0.0000000000000407
230
0.0251869429734098
  0
LINE
  5
7CF
330
1F
100
AcDbEntity
  8
sideiii
100
AcDbLine
 10
1052.488691415447
 20
-79.80435017326107
 30
-976.3324561016764
 11
1052.489134672954
 21
-79.78980017326108
 31
-976.4576446523619
210
0.9996827586307839
220
-0.0000000000000407
230
0.0251869429734098
  0
LINE
  5
7D0
330
1F
100
AcDbEntity
  8
sideiii
100
AcDbLine
 10
1052.489134672954
 20
-79.78980017326108
 30
-976.4576446523619
 11
1052.496698029469
 21
-79.79753017326107
 31
-976.5434413728019
210
0.9996827586307839
220
-0.0000000000000407
230
0.0251869429734098
  0
LINE
  5
7D1
330
1F
100
AcDbEntity
  8
sideiii
100
AcDbLine
 10
1052.496698029469
 20
-79.79753017326107
 30
-976.5434413728019
 11
1052.50067057614
 21
-79.82937017326108
 31
-976.619325390045
210
0.9996827586307839
220
-0.0000000000000407
230
0.0251869429734098
  0
LINE
  5
7D2
330
1F
100
AcDbEntity
  8
sideiii
100
AcDbLine
 10
1052.50067057614
 20
-79.82937017326108
 30
-976.619325390045
 11
1052.526912591781
 21
-79.76953017326104
 31
-976.8013121676281
210
0.9996827586307839
220
-0.0000000000000407
230
0.0251869429734098
  0
LINE
  5
7D3
330
1F
100
AcDbEntity
  8
sideiii
100
AcDbLine
 10
1052.526912591781
 20
-79.76953017326104
 30
-976.8013121676281
 11
1052.515093528264
 21
-79.78347017326107
 31
-976.8320696112404
210
0.9996827586307839
220
-0.0000000000000407
230
0.0251869429734098
  0
LINE
  5
7D4
330
1F
100
AcDbEntity
  8
sideiii
100
AcDbLine
 10
1052.515093528264
 20
-79.78347017326107
 30
-976.8320696112404
 11
1052.516755757957
 21
-79.86793017326104
 31
-976.9218662319588
210
0.9996827586307839
220
-0.0000000000000407
230
0.0251869429734098
  0
LINE
  5
7D5
330
1F
100
AcDbEntity
  8
sideiii
100
AcDbLine
 10
1052.516755757957
 20
-79.86793017326104
 30
-976.9218662319588
 11
1052.519870798183
 21
-79.86984017326105
 31
-976.9232182025191
210
0.9996827586307839
220
-0.0000000000000407
230
0.0251869429734098
  0
LINE
  5
7D6
330
1F
100
AcDbEntity
  8
sideiii
100
AcDbLine
 10
1052.493285707451
 20
-80.46686017326104
 30
-977.6395950640599
 11
1052.49920747206
 21
-80.45963017326105
 31
-977.5375535411198
210
0.9996827586307839
220
-0.0000000000000407
230
0.0251869429734098
  0
LINE
  5
7D7
330
1F
100
AcDbEntity
  8
sideiii
100
AcDbLine
 10
1052.49920747206
 20
-80.45963017326105
 30
-977.5375535411198
 11
1052.509565959005
 21
-80.44437017326103
 31
-977.3590960283943
210
0.9996827586307839
220
-0.0000000000000407
230
0.0251869429734098
  0
LINE
  5
7D8
330
1F
100
AcDbEntity
  8
sideiii
100
AcDbLine
 10
1052.509565959005
 20
-80.44437017326103
 30
-977.3590960283943
 11
1052.52964977128
 21
-79.73566017326104
 31
-977.368523169239
210
0.9996827586307839
220
-0.0000000000000407
230
0.0251869429734098
  0
LINE
  5
7D9
330
1F
100
AcDbEntity
  8
sideiii
100
AcDbLine
 10
1052.52964977128
 20
-79.73566017326104
 30
-977.368523169239
 11
1052.503596513538
 21
-79.68244017326103
 31
-977.9194041333873
210
0.9996827586307839
220
-0.0000000000000407
230
0.0251869429734098
  0
LINE
  5
7DA
330
1F
100
AcDbEntity
  8
sideiii
100
AcDbLine
 10
1052.503596513538
 20
-79.68244017326103
 30
-977.9194041333873
 11
1052.509382895601
 21
-79.70730017326104
 31
-978.1589944000563
210
0.9996827586307839
220
-0.0000000000000407
230
0.0251869429734098
  0
LINE
  5
7DB
330
1F
100
AcDbEntity
  8
sideiii
100
AcDbLine
 10
1052.509382895601
 20
-79.70730017326104
 30
-978.1589944000563
 11
1052.536827370682
 21
-79.80525017326101
 31
-978.6749668454326
210
0.9996827586307839
220
-0.0000000000000407
230
0.0251869429734098
  0
LINE
  5
7DC
330
1F
100
AcDbEntity
  8
sideiii
100
AcDbLine
 10
1052.536827370682
 20
-79.80525017326101
 30
-978.6749668454326
 11
1052.516427095993
 21
-80.53304017326102
 31
-978.6716396104512
210
0.9996827586307839
220
-0.0000000000000407
230
0.0251869429734098
  0
LINE
  5
7DD
330
1F
100
AcDbEntity
  8
sideiii
100
AcDbLine
 10
1052.516427095993
 20
-80.53304017326102
 30
-978.6716396104512
 11
1052.484095872025
 21
-80.47363017326103
 31
-978.2876721247749
210
0.9996827586307839
220
-0.0000000000000407
230
0.0251869429734098
  0
LINE
  5
7DE
330
1F
100
AcDbEntity
  8
sideiii
100
AcDbLine
 10
1052.484095872025
 20
-80.47363017326103
 30
-978.2876721247749
 11
1052.50354493101
 21
-80.15924017326103
 31
-978.2858016690493
210
0.9996827586307839
220
-0.0000000000000407
230
0.0251869429734098
  0
LINE
  5
7DF
330
1F
100
AcDbEntity
  8
sideiii
100
AcDbLine
 10
1052.50354493101
 20
-80.15924017326103
 30
-978.2858016690493
 11
1052.497485493566
 21
-80.02774017326103
 31
-978.2315070632597
210
0.9996827586307839
220
-0.0000000000000407
230
0.0251869429734098
  0
LINE
  5
7E0
330
1F
100
AcDbEntity
  8
sideiii
100
AcDbLine
 10
1052.497485493566
 20
-80.02774017326103
 30
-978.2315070632597
 11
1052.480496048947
 21
-79.92010017326103
 31
-978.0352127027406
210
0.9996827586307839
220
-0.0000000000000407
230
0.0251869429734098
  0
LINE
  5
7E1
330
1F
100
AcDbEntity
  8
sideiii
100
AcDbLine
 10
1052.480496048947
 20
-79.92010017326103
 30
-978.0352127027406
 11
1052.483287115938
 21
-79.91683017326102
 31
-977.9117432346723
210
0.9996827586307839
220
-0.0000000000000407
230
0.0251869429734098
  0
LINE
  5
7E2
330
1F
100
AcDbEntity
  8
sideiii
100
AcDbLine
 10
1052.483287115938
 20
-79.91683017326102
 30
-977.9117432346723
 11
1052.489155514821
 21
-79.97431017326104
 31
-977.7833647006625
210
0.9996827586307839
220
-0.0000000000000407
230
0.0251869429734098
  0
LINE
  5
7E3
330
1F
100
AcDbEntity
  8
sideiii
100
AcDbLine
 10
1052.489155514821
 20
-79.97431017326104
 30
-977.7833647006625
 11
1052.492510061082
 21
-80.04476017326103
 31
-977.7068759444993
210
0.9996827586307839
220
-0.0000000000000407
230
0.0251869429734098
  0
LINE
  5
7E4
330
1F
100
AcDbEntity
  8
sideiii
100
AcDbLine
 10
1052.492510061082
 20
-80.04476017326103
 30
-977.7068759444993
 11
1052.508927516096
 21
-80.08680017326105
 31
-977.6470134481357
210
0.9996827586307839
220
-0.0000000000000407
230
0.0251869429734098
  0
LINE
  5
7E5
330
1F
100
AcDbEntity
  8
sideiii
100
AcDbLine
 10
1052.508927516096
 20
-80.08680017326105
 30
-977.6470134481357
 11
1052.495340640142
 21
-80.47144017326104
 31
-977.6425442421887
210
0.9996827586307839
220
-0.0000000000000407
230
0.0251869429734098
  0
LINE
  5
7E6
330
1F
100
AcDbEntity
  8
sideiii
100
AcDbLine
 10
1052.495340640142
 20
-80.47144017326104
 30
-977.6425442421887
 11
1052.493285707451
 21
-80.46686017326104
 31
-977.6395950640599
210
0.9996827586307839
220
-0.0000000000000407
230
0.0251869429734098
  0
LINE
  5
7E7
330
1F
100
AcDbEntity
  8
sideiii
100
AcDbLine
 10
1052.518774412629
 20
-80.507400173261
 30
-978.9438668504635
 11
1052.519586140864
 21
-80.52906017326103
 31
-978.934793527077
210
0.9996827586307839
220
-0.0000000000000407
230
0.0251869429734098
  0
LINE
  5
7E8
330
1F
100
AcDbEntity
  8
sideiii
100
AcDbLine
 10
1052.519586140864
 20
-80.52906017326103
 30
-978.934793527077
 11
1052.491085575161
 21
-80.62078017326101
 31
-979.1761279304568
210
0.9996827586307839
220
-0.0000000000000407
230
0.0251869429734098
  0
LINE
  5
7E9
330
1F
100
AcDbEntity
  8
sideiii
100
AcDbLine
 10
1052.491085575161
 20
-80.62078017326101
 30
-979.1761279304568
 11
1052.521304435597
 21
-80.48028017326101
 31
-979.4996794536706
210
0.9996827586307839
220
-0.0000000000000407
230
0.0251869429734098
  0
LINE
  5
7EA
330
1F
100
AcDbEntity
  8
sideiii
100
AcDbLine
 10
1052.521304435597
 20
-80.48028017326101
 30
-979.4996794536706
 11
1052.521460668403
 21
-80.36972017326098
 31
-979.434414814
210
0.9996827586307839
220
-0.0000000000000407
230
0.0251869429734098
  0
LINE
  5
7EB
330
1F
100
AcDbEntity
  8
sideiii
100
AcDbLine
 10
1052.521460668403
 20
-80.36972017326098
 30
-979.434414814
 11
1052.507613523743
 21
-80.55384017326099
 31
-979.0869033362259
210
0.9996827586307839
220
-0.0000000000000407
230
0.0251869429734098
  0
LINE
  5
7EC
330
1F
100
AcDbEntity
  8
sideiii
100
AcDbLine
 10
1052.507613523743
 20
-80.55384017326099
 30
-979.0869033362259
 11
1052.519176978346
 21
-80.50589017326101
 31
-978.9435666158167
210
0.9996827586307839
220
-0.0000000000000407
230
0.0251869429734098
  0
LINE
  5
7ED
330
1F
100
AcDbEntity
  8
sideiii
100
AcDbLine
 10
1052.519176978346
 20
-80.50589017326101
 30
-978.9435666158167
 11
1052.518774412629
 21
-80.507400173261
 31
-978.9438668504635
210
0.9996827586307839
220
-0.0000000000000407
230
0.0251869429734098
  0
LINE
  5
7EE
330
1F
100
AcDbEntity
  8
sideiii
100
AcDbLine
 10
1052.544550921599
 20
-80.489560173261
 30
-979.0275741744281
 11
1052.524031002644
 21
-79.976590173261
 31
-979.0310120991085
210
0.9996827586307839
220
-0.0000000000000407
230
0.0251869429734098
  0
LINE
  5
7EF
330
1F
100
AcDbEntity
  8
sideiii
100
AcDbLine
 10
1052.524031002644
 20
-79.976590173261
 30
-979.0310120991085
 11
1052.524750000182
 21
-79.97709017326101
 31
-979.0488296422202
210
0.9996827586307839
220
-0.0000000000000407
230
0.0251869429734098
  0
LINE
  5
7F0
330
1F
100
AcDbEntity
  8
sideiii
100
AcDbLine
 10
1052.524750000182
 20
-79.97709017326101
 30
-979.0488296422202
 11
1052.51811674215
 21
-80.13840017326101
 31
-979.292163909408
210
0.9996827586307839
220
-0.0000000000000407
230
0.0251869429734098
  0
LINE
  5
7F1
330
1F
100
AcDbEntity
  8
sideiii
100
AcDbLine
 10
1052.51811674215
 20
-80.13840017326101
 30
-979.292163909408
 11
1052.517715825108
 21
-80.13643017326101
 31
-979.3111900431595
210
0.9996827586307839
220
-0.0000000000000407
230
0.0251869429734098
  0
LINE
  5
7F2
330
1F
100
AcDbEntity
  8
sideiii
100
AcDbLine
 10
1052.517715825108
 20
-80.13643017326101
 30
-979.3111900431595
 11
1052.523405778479
 21
-80.10679017326101
 31
-979.4945448983737
210
0.9996827586307839
220
-0.0000000000000407
230
0.0251869429734098
  0
LINE
  5
7F3
330
1F
100
AcDbEntity
  8
sideiii
100
AcDbLine
 10
1052.523405778479
 20
-80.10679017326101
 30
-979.4945448983737
 11
1052.524942115785
 21
-80.06279017326098
 31
-979.5654486963517
210
0.9996827586307839
220
-0.0000000000000407
230
0.0251869429734098
  0
LINE
  5
7F4
330
1F
100
AcDbEntity
  8
sideiii
100
AcDbLine
 10
1052.524942115785
 20
-80.06279017326098
 30
-979.5654486963517
 11
1052.528913103045
 21
-80.01427017326099
 31
-979.6500055042393
210
0.9996827586307839
220
-0.0000000000000407
230
0.0251869429734098
  0
LINE
  5
7F5
330
1F
100
AcDbEntity
  8
sideiii
100
AcDbLine
 10
1052.528913103045
 20
-80.01427017326099
 30
-979.6500055042393
 11
1052.538496553385
 21
-80.02014017326098
 31
-979.8536987463453
210
0.9996827586307839
220
-0.0000000000000407
230
0.0251869429734098
  0
LINE
  5
7F6
330
1F
100
AcDbEntity
  8
sideiii
100
AcDbLine
 10
1052.538496553385
 20
-80.02014017326098
 30
-979.8536987463453
 11
1052.537802065131
 21
-79.98289017326098
 31
-979.8372510204822
210
0.9996827586307839
220
-0.0000000000000407
230
0.0251869429734098
  0
LINE
  5
7F7
330
1F
100
AcDbEntity
  8
sideiii
100
AcDbLine
 10
1052.537802065131
 20
-79.98289017326098
 30
-979.8372510204822
 11
1052.522343851701
 21
-79.97109017326099
 31
-979.5830197129342
210
0.9996827586307839
220
-0.0000000000000407
230
0.0251869429734098
  0
LINE
  5
7F8
330
1F
100
AcDbEntity
  8
sideiii
100
AcDbLine
 10
1052.522343851701
 20
-79.97109017326099
 30
-979.5830197129342
 11
1052.517725030286
 21
-80.02348017326099
 31
-979.3135405569895
210
0.9996827586307839
220
-0.0000000000000407
230
0.0251869429734098
  0
LINE
  5
7F9
330
1F
100
AcDbEntity
  8
sideiii
100
AcDbLine
 10
1052.517725030286
 20
-80.02348017326099
 30
-979.3135405569895
 11
1052.518149898811
 21
-80.02300017326101
 31
-979.2994353811048
210
0.9996827586307839
220
-0.0000000000000407
230
0.0251869429734098
  0
LINE
  5
7FA
330
1F
100
AcDbEntity
  8
sideiii
100
AcDbLine
 10
1052.518149898811
 20
-80.02300017326101
 30
-979.2994353811048
 11
1052.528682705804
 21
-79.955920173261
 31
-979.0318151917004
210
0.9996827586307839
220
-0.0000000000000407
230
0.0251869429734098
  0
LINE
  5
7FB
330
1F
100
AcDbEntity
  8
sideiii
100
AcDbLine
 10
1052.528682705804
 20
-79.955920173261
 30
-979.0318151917004
 11
1052.541309628574
 21
-79.894650173261
 31
-979.0311369429481
210
0.9996827586307839
220
-0.0000000000000407
230
0.0251869429734098
  0
LINE
  5
7FC
330
1F
100
AcDbEntity
  8
sideiii
100
AcDbLine
 10
1052.541309628574
 20
-79.894650173261
 30
-979.0311369429481
 11
1052.525198981536
 21
-79.79050017326099
 31
-979.3008983003588
210
0.9996827586307839
220
-0.0000000000000407
230
0.0251869429734098
  0
LINE
  5
7FD
330
1F
100
AcDbEntity
  8
sideiii
100
AcDbLine
 10
1052.525198981536
 20
-79.79050017326099
 30
-979.3008983003588
 11
1052.533507024174
 21
-79.73423017326101
 31
-979.4889086908362
210
0.9996827586307839
220
-0.0000000000000407
230
0.0251869429734098
  0
LINE
  5
7FE
330
1F
100
AcDbEntity
  8
sideiii
100
AcDbLine
 10
1052.533507024174
 20
-79.73423017326101
 30
-979.4889086908362
 11
1052.530803384792
 21
-79.71765017326098
 31
-979.6583305348651
210
0.9996827586307839
220
-0.0000000000000407
230
0.0251869429734098
  0
LINE
  5
7FF
330
1F
100
AcDbEntity
  8
sideiii
100
AcDbLine
 10
1052.530803384792
 20
-79.71765017326098
 30
-979.6583305348651
 11
1052.542177954921
 21
-79.710990173261
 31
-979.7615968045485
210
0.9996827586307839
220
-0.0000000000000407
230
0.0251869429734098
  0
LINE
  5
800
330
1F
100
AcDbEntity
  8
sideiii
100
AcDbLine
 10
1052.542177954921
 20
-79.710990173261
 30
-979.7615968045485
 11
1052.550507994436
 21
-79.73801017326099
 31
-979.9393633912337
210
0.9996827586307839
220
-0.0000000000000407
230
0.0251869429734098
  0
LINE
  5
801
330
1F
100
AcDbEntity
  8
sideiii
100
AcDbLine
 10
1052.550507994436
 20
-79.73801017326099
 30
-979.9393633912337
 11
1052.546769702678
 21
-80.17398017326099
 31
-979.9382872059645
210
0.9996827586307839
220
-0.0000000000000407
230
0.0251869429734098
  0
LINE
  5
802
330
1F
100
AcDbEntity
  8
sideiii
100
AcDbLine
 10
1052.546769702678
 20
-80.17398017326099
 30
-979.9382872059645
 11
1052.539896603767
 21
-80.16422017326098
 31
-979.7433084629915
210
0.9996827586307839
220
-0.0000000000000407
230
0.0251869429734098
  0
LINE
  5
803
330
1F
100
AcDbEntity
  8
sideiii
100
AcDbLine
 10
1052.539896603767
 20
-80.16422017326098
 30
-979.7433084629915
 11
1052.530633086693
 21
-80.20502017326098
 31
-979.587252275189
210
0.9996827586307839
220
-0.0000000000000407
230
0.0251869429734098
  0
LINE
  5
804
330
1F
100
AcDbEntity
  8
sideiii
100
AcDbLine
 10
1052.530633086693
 20
-80.20502017326098
 30
-979.587252275189
 11
1052.53133261527
 21
-80.21399017326102
 31
-979.4871729068869
210
0.9996827586307839
220
-0.0000000000000407
230
0.0251869429734098
  0
LINE
  5
805
330
1F
100
AcDbEntity
  8
sideiii
100
AcDbLine
 10
1052.53133261527
 20
-80.21399017326102
 30
-979.4871729068869
 11
1052.534530689432
 21
-80.38951017326102
 31
-979.214295789265
210
0.9996827586307839
220
-0.0000000000000407
230
0.0251869429734098
  0
LINE
  5
806
330
1F
100
AcDbEntity
  8
sideiii
100
AcDbLine
 10
1052.534530689432
 20
-80.38951017326102
 30
-979.214295789265
 11
1052.545943850487
 21
-80.49944017326101
 31
-979.0435541603201
210
0.9996827586307839
220
-0.0000000000000407
230
0.0251869429734098
  0
LINE
  5
807
330
1F
100
AcDbEntity
  8
sideiii
100
AcDbLine
 10
1052.545943850487
 20
-80.49944017326101
 30
-979.0435541603201
 11
1052.54429675517
 21
-80.49946017326101
 31
-979.0250297689127
210
0.9996827586307839
220
-0.0000000000000407
230
0.0251869429734098
  0
LINE
  5
808
330
1F
100
AcDbEntity
  8
sideiii
100
AcDbLine
 10
1052.54429675517
 20
-80.49946017326101
 30
-979.0250297689127
 11
1052.544550921599
 21
-80.489560173261
 31
-979.0275741744281
210
0.9996827586307839
220
-0.0000000000000407
230
0.0251869429734098
  0
LINE
  5
809
330
1F
100
AcDbEntity
  8
sideiii
100
AcDbLine
 10
1052.518411957007
 20
-80.443720173261
 30
-979.5464671493563
 11
1052.517429965456
 21
-80.34144017326099
 31
-979.5321073271919
210
0.9996827586307839
220
-0.0000000000000407
230
0.0251869429734098
  0
LINE
  5
80A
330
1F
100
AcDbEntity
  8
sideiii
100
AcDbLine
 10
1052.517429965456
 20
-80.34144017326099
 30
-979.5321073271919
 11
1052.490921930012
 21
-80.290160173261
 31
-979.7254763282156
210
0.9996827586307839
220
-0.0000000000000407
230
0.0251869429734098
  0
LINE
  5
80B
330
1F
100
AcDbEntity
  8
sideiii
100
AcDbLine
 10
1052.490921930012
 20
-80.290160173261
 30
-979.7254763282156
 11
1052.498208319419
 21
-80.29680017326098
 31
-979.8276752280601
210
0.9996827586307839
220
-0.0000000000000407
230
0.0251869429734098
  0
LINE
  5
80C
330
1F
100
AcDbEntity
  8
sideiii
100
AcDbLine
 10
1052.498208319419
 20
-80.29680017326098
 30
-979.8276752280601
 11
1052.509281067413
 21
-80.300530173261
 31
-979.8633776656782
210
0.9996827586307839
220
-0.0000000000000407
230
0.0251869429734098
  0
LINE
  5
80D
330
1F
100
AcDbEntity
  8
sideiii
100
AcDbLine
 10
1052.509281067413
 20
-80.300530173261
 30
-979.8633776656782
 11
1052.493545556215
 21
-80.286100173261
 31
-979.8971046947102
210
0.9996827586307839
220
-0.0000000000000407
230
0.0251869429734098
  0
LINE
  5
80E
330
1F
100
AcDbEntity
  8
sideiii
100
AcDbLine
 10
1052.493545556215
 20
-80.286100173261
 30
-979.8971046947102
 11
1052.494692714182
 21
-80.301450173261
 31
-979.9164319327074
210
0.9996827586307839
220
-0.0000000000000407
230
0.0251869429734098
  0
LINE
  5
80F
330
1F
100
AcDbEntity
  8
sideiii
100
AcDbLine
 10
1052.494692714182
 20
-80.301450173261
 30
-979.9164319327074
 11
1052.52769002593
 21
-80.47735017326099
 31
-979.8067260280465
210
0.9996827586307839
220
-0.0000000000000407
230
0.0251869429734098
  0
LINE
  5
810
330
1F
100
AcDbEntity
  8
sideiii
100
AcDbLine
 10
1052.52769002593
 20
-80.47735017326099
 30
-979.8067260280465
 11
1052.527158539108
 21
-80.461340173261
 31
-979.5609114320157
210
0.9996827586307839
220
-0.0000000000000407
230
0.0251869429734098
  0
LINE
  5
811
330
1F
100
AcDbEntity
  8
sideiii
100
AcDbLine
 10
1052.527158539108
 20
-80.461340173261
 30
-979.5609114320157
 11
1052.518411957007
 21
-80.443720173261
 31
-979.5464671493563
210
0.9996827586307839
220
-0.0000000000000407
230
0.0251869429734098
  0
LINE
  5
812
330
1F
100
AcDbEntity
  8
sideiii
100
AcDbLine
 10
1052.580377936116
 20
-83.38292017326105
 30
-977.4519819584247
 11
1052.571682030899
 21
-83.15632017326104
 31
-977.3140872357826
210
0.9996827586307839
220
-0.0000000000000407
230
0.0251869429734098
  0
LINE
  5
813
330
1F
100
AcDbEntity
  8
sideiii
100
AcDbLine
 10
1052.571682030899
 20
-83.15632017326104
 30
-977.3140872357826
 11
1052.547941819227
 21
-83.15787017326107
 31
-976.1613994989044
210
0.9996827586307839
220
-0.0000000000000407
230
0.0251869429734098
  0
LINE
  5
814
330
1F
100
AcDbEntity
  8
sideiii
100
AcDbLine
 10
1052.547941819227
 20
-83.15787017326107
 30
-976.1613994989044
 11
1052.551461224716
 21
-83.26286017326106
 31
-976.1434651663268
210
0.9996827586307839
220
-0.0000000000000407
230
0.0251869429734098
  0
LINE
  5
815
330
1F
100
AcDbEntity
  8
sideiii
100
AcDbLine
 10
1052.551461224716
 20
-83.26286017326106
 30
-976.1434651663268
 11
1052.55268954373
 21
-83.48041017326108
 31
-976.2009524660754
210
0.9996827586307839
220
-0.0000000000000407
230
0.0251869429734098
  0
LINE
  5
816
330
1F
100
AcDbEntity
  8
sideiii
100
AcDbLine
 10
1052.55268954373
 20
-83.48041017326108
 30
-976.2009524660754
 11
1052.55051982186
 21
-83.48076017326107
 31
-976.3002486155828
210
0.9996827586307839
220
-0.0000000000000407
230
0.0251869429734098
  0
LINE
  5
817
330
1F
100
AcDbEntity
  8
sideiii
100
AcDbLine
 10
1052.56085510704
 20
-80.09136017326103
 30
-978.2592797870758
 11
1052.561645734401
 21
-79.97993017326104
 31
-978.162419145387
210
0.0000000000000401
220
1.0
230
0.0000000000000257
  0
LINE
  5
818
330
1F
100
AcDbEntity
  8
sideiii
100
AcDbLine
 10
1052.561645734401
 20
-79.97993017326104
 30
-978.162419145387
 11
1052.555593639727
 21
-79.92576017326104
 31
-978.0059819508004
210
0.0000000000000401
220
1.0
230
0.0000000000000257
  0
LINE
  5
819
330
1F
100
AcDbEntity
  8
sideiii
100
AcDbLine
 10
1052.555593639727
 20
-79.92576017326104
 30
-978.0059819508004
 11
1052.567960594691
 21
-79.93944017326104
 31
-977.8588037740048
210
0.0000000000000401
220
1.0
230
0.0000000000000257
  0
LINE
  5
81A
330
1F
100
AcDbEntity
  8
sideiii
100
AcDbLine
 10
1052.567960594691
 20
-79.93944017326104
 30
-977.8588037740048
 11
1052.56105752164
 21
-80.02998017326104
 31
-977.7293365689585
210
0.0000000000000401
220
1.0
230
0.0000000000000257
  0
LINE
  5
81B
330
1F
100
AcDbEntity
  8
sideiii
100
AcDbLine
 10
1052.56105752164
 20
-80.02998017326104
 30
-977.7293365689585
 11
1052.582011971519
 21
-80.14243017326103
 31
-977.6561955870793
210
0.0000000000000401
220
1.0
230
0.0000000000000257
  0
LINE
  5
81C
330
1F
100
AcDbEntity
  8
sideiii
100
AcDbLine
 10
1052.582011971519
 20
-80.14243017326103
 30
-977.6561955870793
 11
1052.569679610676
 21
-80.24776017326104
 31
-977.6435521905399
210
0.0000000000000401
220
1.0
230
0.0000000000000257
  0
LINE
  5
81D
330
1F
100
AcDbEntity
  8
sideiii
100
AcDbLine
 10
1052.569679610676
 20
-80.24776017326104
 30
-977.6435521905399
 11
1052.574695546367
 21
-80.40825017326104
 31
-977.6846188825075
210
0.0000000000000401
220
1.0
230
0.0000000000000257
  0
LINE
  5
81E
330
1F
100
AcDbEntity
  8
sideiii
100
AcDbLine
 10
1052.574695546367
 20
-80.40825017326104
 30
-977.6846188825075
 11
1052.566414663717
 21
-80.47307017326104
 31
-977.7335229670253
210
0.0000000000000401
220
1.0
230
0.0000000000000257
  0
LINE
  5
81F
330
1F
100
AcDbEntity
  8
sideiii
100
AcDbLine
 10
1052.566414663717
 20
-80.47307017326104
 30
-977.7335229670253
 11
1052.554214196542
 21
-80.53718017326103
 31
-977.8039325963433
210
0.0000000000000401
220
1.0
230
0.0000000000000257
  0
LINE
  5
820
330
1F
100
AcDbEntity
  8
sideiii
100
AcDbLine
 10
1052.554214196542
 20
-80.53718017326103
 30
-977.8039325963433
 11
1052.558788530944
 21
-80.57648017326101
 31
-977.9156128124284
210
0.0000000000000401
220
1.0
230
0.0000000000000257
  0
LINE
  5
821
330
1F
100
AcDbEntity
  8
sideiii
100
AcDbLine
 10
1052.558788530944
 20
-80.57648017326101
 30
-977.9156128124284
 11
1052.541274733562
 21
-80.58678017326101
 31
-978.0399533774154
210
0.0000000000000401
220
1.0
230
0.0000000000000257
  0
LINE
  5
822
330
1F
100
AcDbEntity
  8
sideiii
100
AcDbLine
 10
1052.541274733562
 20
-80.58678017326101
 30
-978.0399533774154
 11
1052.552111712911
 21
-80.56458017326102
 31
-978.1008397427084
210
0.0000000000000401
220
1.0
230
0.0000000000000257
  0
LINE
  5
823
330
1F
100
AcDbEntity
  8
sideiii
100
AcDbLine
 10
1052.552111712911
 20
-80.56458017326102
 30
-978.1008397427084
 11
1052.553994616685
 21
-80.50944017326102
 31
-978.1803375381079
210
0.0000000000000401
220
1.0
230
0.0000000000000257
  0
LINE
  5
824
330
1F
100
AcDbEntity
  8
sideiii
100
AcDbLine
 10
1052.553994616685
 20
-80.50944017326102
 30
-978.1803375381079
 11
1052.550951932973
 21
-80.42006017326102
 31
-978.2604695952127
210
0.0000000000000401
220
1.0
230
0.0000000000000257
  0
LINE
  5
826
330
1F
100
AcDbEntity
  8
sideii
100
AcDbLine
 10
1052.585396820079
 20
-79.6369901732611
 30
-975.9109966838018
 11
1052.581958804876
 21
-83.5856001732611
 31
-975.9131039454054
210
0.0000000000000401
220
1.0
230
0.0000000000000257
  0
LINE
  5
827
330
1F
100
AcDbEntity
  8
sideiii
100
AcDbLine
 10
1052.603109427889
 20
-79.61890017326098
 30
-980.0284867955598
 11
1052.600398038809
 21
-84.02877017326099
 31
-980.027274702636
210
0.9996827586307839
220
-0.0000000000000407
230
0.0251869429734098
  0
LINE
  5
828
330
1F
100
AcDbEntity
  8
sideiii
100
AcDbLine
 10
1052.600398038809
 20
-84.02877017326099
 30
-980.027274702636
 11
1052.596739370498
 21
-84.02449017326103
 31
-978.2514534893529
210
0.9996827586307839
220
-0.0000000000000407
230
0.0251869429734098
  0
LINE
  5
82A
330
1F
100
AcDbEntity
  8
sideiii
100
AcDbLine
 10
1052.528682705804
 20
-80.34335560007207
 30
-979.0318151917004
 11
1052.541309628574
 21
-80.28208560007206
 31
-979.0311369429481
210
0.9996827586307839
220
-0.0000000000000407
230
0.0251869429734098
  0
LINE
  5
82B
330
1F
100
AcDbEntity
  8
sideiii
100
AcDbLine
 10
1052.536827370681
 20
-80.02115711084924
 30
-978.6749668454328
 11
1052.516427095993
 21
-80.74894711084922
 31
-978.6716396104512
210
0.9996827586307839
220
-0.0000000000000407
230
0.0251869429734098
  0
INSERT
  5
82C
330
1F
100
AcDbEntity
  8
INST_CTRL
100
AcDbBlockReference
 66
     1
  2
rpos_id
 10
-1053.191096471257
 20
-979.6144178405944
 30
-85.08762743576085
 41
0.2362204724410562
 42
0.2362204724408874
 43
0.2362204724409513
 50
358.2691686485691
210
-0.0010324736154165
220
0.9999922776463336
230
0.0037919185027364
  0
ATTRIB
  5
82D
330
82C
100
AcDbEntity
  8
INST_ID
100
AcDbText
 10
-1053.178185649592
 20
-979.6148079784916
 30
-85.08762743576086
 40
0.0118110236220473
  1
STA166
 50
358.2691686485731
210
-0.0010324736154165
220
0.9999922776463336
230
0.0037919185027364
100
AcDbAttribute
  2
ID
 70
     0
  0
SEQEND
  5
82E
330
82C
100
AcDbEntity
  8
INST_CTRL
  0
INSERT
  5
82F
330
1F
100
AcDbEntity
  8
INST_CTRL
100
AcDbBlockReference
 66
     1
  2
rpos_id
 10
-1054.730529783911
 20
-979.6220641137463
 30
-85.31374743576085
 41
0.2362204724410562
 42
0.2362204724408874
 43
0.2362204724409513
 50
358.2691686485691
210
-0.0010324736154165
220
0.9999922776463336
230
0.0037919185027364
  0
ATTRIB
  5
830
330
82F
100
AcDbEntity
  8
INST_ID
100
AcDbText
 10
-1054.717618962245
 20
-979.6224542516432
 30
-85.31374743576083
 40
0.0118110236220473
  1
STA167
 50
358.2691686485731
210
-0.0010324736154165
220
0.9999922776463336
230
0.0037919185027364
100
AcDbAttribute
  2
ID
 70
     0
  0
SEQEND
  5
831
330
82F
100
AcDbEntity
  8
INST_CTRL
  0
LINE
  5
832
330
1F
100
AcDbEntity
  8
INST_CTRL
100
AcDbLine
 10
1054.899794797432
 20
-79.63262670884879
 30
-979.907524515856
 11
1052.743870316669
 21
-79.63031945159855
 31
-979.9320963983774
210
0.030200182119467
220
0.0038213715987423
230
-0.9995365656738403
  0
LINE
  5
833
330
1F
100
AcDbEntity
  8
INST_CTRL
100
AcDbLine
 10
1052.61003420489
 20
-79.63169807536025
 30
-980.029558708941
 11
1052.61006733987
 21
-81.61361504269232
 31
-980.0422972529473
210
0.030200182119467
220
0.0038213715987423
230
-0.9995365656738403
  0
LINE
  5
834
330
1F
100
AcDbEntity
  8
marble
100
AcDbLine
 10
1055.985257075255
 20
-80.24468616598809
 30
-977.8190276650587
 11
1055.979850659247
 21
-80.23808613994399
 31
-977.3514555307071
210
0.9996828684403219
220
0.0000040872542398
230
0.0251825838671235
  0
LINE
  5
835
330
1F
100
AcDbEntity
  8
marks
100
AcDbLine
 10
1055.896119280022
 20
-82.71484633947926
 30
-975.9661747869113
 11
1055.896659128091
 21
-82.76255633731265
 31
-975.9665513115491
210
0.9996828684403219
220
0.0000040872542398
230
0.0251825838671235
  0
LINE
  5
836
330
1F
100
AcDbEntity
  8
marks
100
AcDbLine
 10
1055.896659128091
 20
-82.76255633731265
 30
-975.9665513115491
 11
1055.896975385328
 21
-82.76048634499824
 31
-976.0537610043199
210
0.9996828684403219
220
0.0000040872542398
230
0.0251825838671235
  0
LINE
  5
837
330
1F
100
AcDbEntity
  8
marks
100
AcDbLine
 10
1055.896975385328
 20
-82.76048634499824
 30
-976.0537610043199
 11
1055.896497054477
 21
-82.70599634708318
 31
-976.0550334534615
210
0.9996828684403219
220
0.0000040872542398
230
0.0251825838671235
  0
LINE
  5
838
330
1F
100
AcDbEntity
  8
marks
100
AcDbLine
 10
1055.897786560081
 20
-82.23504634185545
 30
-976.0554711191844
 11
1055.898240328696
 21
-82.28647633997491
 31
-976.0552096091842
210
0.9996828684403219
220
0.0000040872542398
230
0.0251825838671235
  0
LINE
  5
839
330
1F
100
AcDbEntity
  8
marks
100
AcDbLine
 10
1055.898240328696
 20
-82.28647633997491
 30
-976.0552096091842
 11
1055.89733426429
 21
-82.28426633457818
 31
-975.9668243964876
210
0.9996828684403219
220
0.0000040872542398
230
0.0251825838671235
  0
LINE
  5
83A
330
1F
100
AcDbEntity
  8
marks
100
AcDbLine
 10
1055.89733426429
 20
-82.28426633457818
 30
-975.9668243964876
 11
1055.895933352762
 21
-82.23634634021896
 31
-975.966019419777
210
0.9996828684403219
220
0.0000040872542398
230
0.0251825838671235
  0
LINE
  5
83B
330
1F
100
AcDbEntity
  8
marks
100
AcDbLine
 10
1055.895933352762
 20
-82.23634634021896
 30
-975.966019419777
 11
1055.897786560081
 21
-82.23504634185545
 31
-976.0554711191844
210
0.9996828684403219
220
0.0000040872542398
230
0.0251825838671235
  0
ENDSEC
  0
SECTION
  2
OBJECTS
  0
DICTIONARY
  5
C
330
0
100
AcDbDictionary
281
     1
  3
ACAD_COLOR
350
73
  3
ACAD_GROUP
350
D
  3
ACAD_LAYOUT
350
1A
  3
ACAD_MATERIAL
350
72
  3
ACAD_MLINESTYLE
350
17
  3
ACAD_PLOTSETTINGS
350
19
  3
ACAD_PLOTSTYLENAME
350
E
  3
AcDbVariableDictionary
350
66
  3
ADE_QUERY_LIBRARY
350
860
  3
ASE_INDEX_DICTIONARY
350
85D
1001
ADE
1000
ADE02C004
1000
[Query]
1000
CaseSensitiveMatch=0
1000
SaveCurrQueryInSession=1
1000
MkSelSetWithQryObj=0
1000
ShowBlockAsInsPt=0
1000
CreateAssociativeHatchObjects=0
1000
ReferenceBoundaryForAreaLocation=1
1000
ShowImageAsBoundary=1
1000
DefaultJoinOperator=2
1000
ColorForAdd=red
1000
ColorForRemove=red
1000
BlockLocnForQuery=1
1000
TextLocnForQuery=1
1000
[Save Back]
1000
RedefineBlockDefinitions=1
1000
RedefineLayerDefinitions=1
1000
RedefineTextStyleDefinitions=1
1000
RemoveUnusedGroups=1
1000
EraseSavedBackObjects=1
1000
RemoveLockAfterSave=1
1000
CreateHistoryFileOfChanges=0
1000
CreateBackupFileOfSourceDwg=1
1000
DontAddObjectsToSaveSet=0
1000
MarkObjectsForEditingWithoutPrompting=0
1000
[Coordinate Transformation]
1000
RestoreLastActiveDwgsOnStartup=1
1000
ActivateDwgsOnAttach=1
1000
AdjustSizesAndScalesForChangesInUnits=1
1000
AdjustRotationsForMapDistortions=1
1000
AdjustSizesAndScalesForMapDistortions=1
1000
AdjustElevations=1
1000
AdjustZeroRotationObjects=1
1000
ReconnectDbOnWSOpen=1
1000
NoOfSQLConditionsInHistory=10
  0
DICTIONARY
  5
9C
330
9B
100
AcDbDictionary
280
     1
281
     1
  0
DICTIONARY
  5
73
102
{ACAD_REACTORS
330
C
102
}
330
C
100
AcDbDictionary
281
     1
  0
DICTIONARY
  5
D
102
{ACAD_REACTORS
330
C
102
}
330
C
100
AcDbDictionary
281
     1
  0
DICTIONARY
  5
1A
102
{ACAD_REACTORS
330
C
102
}
330
C
100
AcDbDictionary
281
     1
  3
Layout1
350
59
  3
Layout2
350
5E
  3
Model
350
22
  0
DICTIONARY
  5
72
102
{ACAD_REACTORS
330
C
102
}
330
C
100
AcDbDictionary
281
     1
  0
DICTIONARY
  5
17
102
{ACAD_REACTORS
330
C
102
}
330
C
100
AcDbDictionary
281
     1
  3
Standard
350
18
  0
DICTIONARY
  5
19
102
{ACAD_REACTORS
330
C
102
}
330
C
100
AcDbDictionary
281
     1
  0
ACDBDICTIONARYWDFLT
  5
E
102
{ACAD_REACTORS
330
C
102
}
330
C
100
AcDbDictionary
281
     1
  3
Normal
350
F
100
AcDbDictionaryWithDefault
340
F
  0
DICTIONARY
  5
66
102
{ACAD_REACTORS
330
C
102
}
330
C
100
AcDbDictionary
281
     1
  3
DIMASSOC
350
67
  3
HIDETEXT
350
6B
  0
DICTIONARY
  5
860
102
{ACAD_REACTORS
330
C
102
}
330
C
100
AcDbDictionary
281
     1
  3
_CurrQry
350
870
  0
DICTIONARY
  5
85D
102
{ACAD_REACTORS
330
C
102
}
330
C
100
AcDbDictionary
281
     1
  3
ASEBlockHierarchyIndexRecord
350
85F
1001
DCO15
1040
1669981621.841
  0
LAYOUT
  5
59
102
{ACAD_REACTORS
330
1A
102
}
330
1A
100
AcDbPlotSettings
  1

  2
None
  4

  6

 40
0.0
 41
0.0
 42
0.0
 43
0.0
 44
0.0
 45
0.0
 46
0.0
 47
0.0
 48
0.0
 49
0.0
140
0.0
141
0.0
142
1.0
143
1.0
 70
   688
 72
     0
 73
     0
 74
     5
  7

 75
    16
147
1.0
 76
     0
 77
     2
 78
   300
148
0.0
149
0.0
100
AcDbLayout
  1
Layout1
 70
     1
 71
     1
 10
0.0
 20
0.0
 11
12.0
 21
9.0
 12
0.0
 22
0.0
 32
0.0
 14
0.0
 24
0.0
 34
0.0
 15
0.0
 25
0.0
 35
0.0
146
0.0
 13
0.0
 23
0.0
 33
0.0
 16
1.0
 26
0.0
 36
0.0
 17
0.0
 27
1.0
 37
0.0
 76
     0
330
58
  0
LAYOUT
  5
5E
102
{ACAD_REACTORS
330
1A
102
}
330
1A
100
AcDbPlotSettings
  1

  2
None
  4

  6

 40
0.0
 41
0.0
 42
0.0
 43
0.0
 44
0.0
 45
0.0
 46
0.0
 47
0.0
 48
0.0
 49
0.0
140
0.0
141
0.0
142
1.0
143
1.0
 70
   688
 72
     0
 73
     0
 74
     5
  7

 75
    16
147
1.0
 76
     0
 77
     2
 78
   300
148
0.0
149
0.0
100
AcDbLayout
  1
Layout2
 70
     1
 71
     2
 10
0.0
 20
0.0
 11
12.0
 21
9.0
 12
0.0
 22
0.0
 32
0.0
 14
0.0
 24
0.0
 34
0.0
 15
0.0
 25
0.0
 35
0.0
146
0.0
 13
0.0
 23
0.0
 33
0.0
 16
1.0
 26
0.0
 36
0.0
 17
0.0
 27
1.0
 37
0.0
 76
     0
330
5D
  0
LAYOUT
  5
22
102
{ACAD_REACTORS
330
1A
102
}
330
1A
100
AcDbPlotSettings
  1

  2
none_device
  4
ANSI_A_(8.50_x_11.00_Inches)
  6

 40
6.349999904632568
 41
19.04999923706055
 42
6.350006103515625
 43
19.04998779296875
 44
215.8999938964844
 45
279.3999938964844
 46
0.0
 47
0.0
 48
0.0
 49
0.0
140
0.0
141
0.0
142
1.0
143
2.584895464708373
 70
 11952
 72
     0
 73
     1
 74
     0
  7

 75
     0
147
0.3868628397755418
 76
     0
 77
     2
 78
   300
148
0.0
149
0.0
100
AcDbLayout
  1
Model
 70
     1
 71
     0
 10
0.0
 20
0.0
 11
12.0
 21
9.0
 12
0.0
 22
0.0
 32
0.0
 14
0.0
 24
0.0
 34
0.0
 15
0.0
 25
0.0
 35
0.0
146
0.0
 13
0.0
 23
0.0
 33
0.0
 16
1.0
 26
0.0
 36
0.0
 17
0.0
 27
1.0
 37
0.0
 76
     0
330
1F
  0
MLINESTYLE
  5
18
102
{ACAD_REACTORS
330
17
102
}
330
17
100
AcDbMlineStyle
  2
STANDARD
 70
     0
  3

 62
   256
 51
90.0
 52
90.0
 71
     2
 49
0.5
 62
   256
  6
BYLAYER
 49
-0.5
 62
   256
  6
BYLAYER
  0
ACDBPLACEHOLDER
  5
F
102
{ACAD_REACTORS
330
E
102
}
330
E
  0
DICTIONARYVAR
  5
67
102
{ACAD_REACTORS
330
66
102
}
330
66
100
DictionaryVariables
280
     0
  1
2
  0
DICTIONARYVAR
  5
6B
102
{ACAD_REACTORS
330
66
102
}
330
66
100
DictionaryVariables
280
     0
  1
1
  0
XRECORD
  5
870
102
{ACAD_REACTORS
330
860
102
}
330
860
100
AcDbXrecord
280
     1
1000
ADE02C001
1070
     1
1070
     0
1002
{
1002
}
1002
{
1002
}
1002
{
1002
}
1000

  0
XRECORD
  5
85F
102
{ACAD_REACTORS
330
85D
102
}
330
85D
100
AcDbXrecord
280
     1
330
6BE
330
6C1
330
6C4
330
754
330
82C
330
82F
330
491
330
494
  0
ENDSEC
  0
EOF
