  0
SECTION
  2
HEADER
  9
$ACADVER
  1
AC1018
  9
$ACADMAINTVER
 70
     2
  9
$DWGCODEPAGE
  3
ANSI_1252
  9
$INSBASE
 10
0.0
 20
0.0
 30
0.0
  9
$EXTMIN
 10
1042.719451885153
 20
-84.65032729329939
 30
-979.7860554346231
  9
$EXTMAX
 10
1043.139451885153
 20
-84.35332729329941
 30
-979.786055434622
  9
$LIMMIN
 10
0.0
 20
0.0
  9
$LIMMAX
 10
12.0
 20
9.0
  9
$ORTHOMODE
 70
     0
  9
$REGENMODE
 70
     1
  9
$FILLMODE
 70
     1
  9
$QTEXTMODE
 70
     0
  9
$MIRRTEXT
 70
     0
  9
$LTSCALE
 40
1.0
  9
$ATTMODE
 70
     1
  9
$TEXTSIZE
 40
0.2
  9
$TRACEWID
 40
0.05
  9
$TEXTSTYLE
  7
Standard
  9
$CLAYER
  8
0
  9
$CELTYPE
  6
ByLayer
  9
$CECOLOR
 62
   256
  9
$CELTSCALE
 40
1.0
  9
$DISPSILH
 70
     0
  9
$DIMSCALE
 40
1.0
  9
$DIMASZ
 40
0.18
  9
$DIMEXO
 40
0.0625
  9
$DIMDLI
 40
0.38
  9
$DIMRND
 40
0.0
  9
$DIMDLE
 40
0.0
  9
$DIMEXE
 40
0.18
  9
$DIMTP
 40
0.0
  9
$DIMTM
 40
0.0
  9
$DIMTXT
 40
0.18
  9
$DIMCEN
 40
0.09
  9
$DIMTSZ
 40
0.0
  9
$DIMTOL
 70
     0
  9
$DIMLIM
 70
     0
  9
$DIMTIH
 70
     1
  9
$DIMTOH
 70
     1
  9
$DIMSE1
 70
     0
  9
$DIMSE2
 70
     0
  9
$DIMTAD
 70
     0
  9
$DIMZIN
 70
     0
  9
$DIMBLK
  1

  9
$DIMASO
 70
     1
  9
$DIMSHO
 70
     1
  9
$DIMPOST
  1

  9
$DIMAPOST
  1

  9
$DIMALT
 70
     0
  9
$DIMALTD
 70
     2
  9
$DIMALTF
 40
25.4
  9
$DIMLFAC
 40
1.0
  9
$DIMTOFL
 70
     0
  9
$DIMTVP
 40
0.0
  9
$DIMTIX
 70
     0
  9
$DIMSOXD
 70
     0
  9
$DIMSAH
 70
     0
  9
$DIMBLK1
  1

  9
$DIMBLK2
  1

  9
$DIMSTYLE
  2
Standard
  9
$DIMCLRD
 70
     0
  9
$DIMCLRE
 70
     0
  9
$DIMCLRT
 70
     0
  9
$DIMTFAC
 40
1.0
  9
$DIMGAP
 40
0.09
  9
$DIMJUST
 70
     0
  9
$DIMSD1
 70
     0
  9
$DIMSD2
 70
     0
  9
$DIMTOLJ
 70
     1
  9
$DIMTZIN
 70
     0
  9
$DIMALTZ
 70
     0
  9
$DIMALTTZ
 70
     0
  9
$DIMUPT
 70
     0
  9
$DIMDEC
 70
     4
  9
$DIMTDEC
 70
     4
  9
$DIMALTU
 70
     2
  9
$DIMALTTD
 70
     2
  9
$DIMTXSTY
  7
Standard
  9
$DIMAUNIT
 70
     0
  9
$DIMADEC
 70
     0
  9
$DIMALTRND
 40
0.0
  9
$DIMAZIN
 70
     0
  9
$DIMDSEP
 70
    46
  9
$DIMATFIT
 70
     3
  9
$DIMFRAC
 70
     0
  9
$DIMLDRBLK
  1

  9
$DIMLUNIT
 70
     2
  9
$DIMLWD
 70
    -2
  9
$DIMLWE
 70
    -2
  9
$DIMTMOVE
 70
     0
  9
$LUNITS
 70
     2
  9
$LUPREC
 70
     4
  9
$SKETCHINC
 40
0.1
  9
$FILLETRAD
 40
0.0
  9
$AUNITS
 70
     0
  9
$AUPREC
 70
     0
  9
$MENU
  1
.
  9
$ELEVATION
 40
0.0
  9
$PELEVATION
 40
0.0
  9
$THICKNESS
 40
0.0
  9
$LIMCHECK
 70
     0
  9
$CHAMFERA
 40
0.0
  9
$CHAMFERB
 40
0.0
  9
$CHAMFERC
 40
0.0
  9
$CHAMFERD
 40
0.0
  9
$SKPOLY
 70
     0
  9
$TDCREATE
 40
2455131.710112813
  9
$TDUCREATE
 40
2455131.710112813
  9
$TDUPDATE
 40
2455133.386791678
  9
$TDUUPDATE
 40
2455133.386791678
  9
$TDINDWG
 40
0.0140826505
  9
$TDUSRTIMER
 40
0.0140824653
  9
$USRTIMER
 70
     1
  9
$ANGBASE
 50
0.0
  9
$ANGDIR
 70
     0
  9
$PDMODE
 70
     0
  9
$PDSIZE
 40
0.0
  9
$PLINEWID
 40
0.0
  9
$SPLFRAME
 70
     0
  9
$SPLINETYPE
 70
     6
  9
$SPLINESEGS
 70
     8
  9
$HANDSEED
  5
E8
  9
$SURFTAB1
 70
     6
  9
$SURFTAB2
 70
     6
  9
$SURFTYPE
 70
     6
  9
$SURFU
 70
     6
  9
$SURFV
 70
     6
  9
$UCSBASE
  2

  9
$UCSNAME
  2

  9
$UCSORG
 10
0.0
 20
0.0
 30
0.0
  9
$UCSXDIR
 10
1.0
 20
0.0
 30
0.0
  9
$UCSYDIR
 10
0.0
 20
1.0
 30
0.0
  9
$UCSORTHOREF
  2

  9
$UCSORTHOVIEW
 70
     0
  9
$UCSORGTOP
 10
0.0
 20
0.0
 30
0.0
  9
$UCSORGBOTTOM
 10
0.0
 20
0.0
 30
0.0
  9
$UCSORGLEFT
 10
0.0
 20
0.0
 30
0.0
  9
$UCSORGRIGHT
 10
0.0
 20
0.0
 30
0.0
  9
$UCSORGFRONT
 10
0.0
 20
0.0
 30
0.0
  9
$UCSORGBACK
 10
0.0
 20
0.0
 30
0.0
  9
$PUCSBASE
  2

  9
$PUCSNAME
  2

  9
$PUCSORG
 10
0.0
 20
0.0
 30
0.0
  9
$PUCSXDIR
 10
1.0
 20
0.0
 30
0.0
  9
$PUCSYDIR
 10
0.0
 20
1.0
 30
0.0
  9
$PUCSORTHOREF
  2

  9
$PUCSORTHOVIEW
 70
     0
  9
$PUCSORGTOP
 10
0.0
 20
0.0
 30
0.0
  9
$PUCSORGBOTTOM
 10
0.0
 20
0.0
 30
0.0
  9
$PUCSORGLEFT
 10
0.0
 20
0.0
 30
0.0
  9
$PUCSORGRIGHT
 10
0.0
 20
0.0
 30
0.0
  9
$PUCSORGFRONT
 10
0.0
 20
0.0
 30
0.0
  9
$PUCSORGBACK
 10
0.0
 20
0.0
 30
0.0
  9
$USERI1
 70
     0
  9
$USERI2
 70
     0
  9
$USERI3
 70
     0
  9
$USERI4
 70
     0
  9
$USERI5
 70
     0
  9
$USERR1
 40
0.0
  9
$USERR2
 40
0.0
  9
$USERR3
 40
0.0
  9
$USERR4
 40
0.0
  9
$USERR5
 40
0.0
  9
$WORLDVIEW
 70
     1
  9
$SHADEDGE
 70
     3
  9
$SHADEDIF
 70
    70
  9
$TILEMODE
 70
     1
  9
$MAXACTVP
 70
    64
  9
$PINSBASE
 10
0.0
 20
0.0
 30
0.0
  9
$PLIMCHECK
 70
     0
  9
$PEXTMIN
 10
0.0
 20
0.0
 30
0.0
  9
$PEXTMAX
 10
0.0
 20
0.0
 30
0.0
  9
$PLIMMIN
 10
0.0
 20
0.0
  9
$PLIMMAX
 10
12.0
 20
9.0
  9
$UNITMODE
 70
     0
  9
$VISRETAIN
 70
     1
  9
$PLINEGEN
 70
     0
  9
$PSLTSCALE
 70
     1
  9
$TREEDEPTH
 70
  3020
  9
$CMLSTYLE
  2
Standard
  9
$CMLJUST
 70
     0
  9
$CMLSCALE
 40
1.0
  9
$PROXYGRAPHICS
 70
     1
  9
$MEASUREMENT
 70
     0
  9
$CELWEIGHT
370
    -1
  9
$ENDCAPS
280
     0
  9
$JOINSTYLE
280
     0
  9
$LWDISPLAY
290
     0
  9
$INSUNITS
 70
     1
  9
$HYPERLINKBASE
  1

  9
$STYLESHEET
  1

  9
$XEDIT
290
     1
  9
$CEPSNTYPE
380
     0
  9
$PSTYLEMODE
290
     1
  9
$FINGERPRINTGUID
  2
{FDEAD576-A652-11D2-9A35-0060089B3A3F}
  9
$VERSIONGUID
  2
{162E4044-658A-4F67-B341-C1639A7E88D9}
  9
$EXTNAMES
290
     1
  9
$PSVPSCALE
 40
0.0
  9
$OLESTARTUP
290
     0
  9
$SORTENTS
280
   127
  9
$INDEXCTL
280
     0
  9
$HIDETEXT
280
     1
  9
$XCLIPFRAME
290
     0
  9
$HALOGAP
280
     0
  9
$OBSCOLOR
 70
   257
  9
$OBSLTYPE
280
     0
  9
$INTERSECTIONDISPLAY
280
     0
  9
$INTERSECTIONCOLOR
 70
   257
  9
$DIMASSOC
280
     2
  9
$PROJECTNAME
  1

  0
ENDSEC
  0
SECTION
  2
CLASSES
  0
CLASS
  1
ACDBDICTIONARYWDFLT
  2
AcDbDictionaryWithDefault
  3
ObjectDBX Classes
 90
        0
 91
        1
280
     0
281
     0
  0
CLASS
  1
DICTIONARYVAR
  2
AcDbDictionaryVar
  3
ObjectDBX Classes
 90
        0
 91
        2
280
     0
281
     0
  0
CLASS
  1
SORTENTSTABLE
  2
AcDbSortentsTable
  3
ObjectDBX Classes
 90
        0
 91
        1
280
     0
281
     0
  0
CLASS
  1
IMAGE
  2
AcDbRasterImage
  3
ISM
 90
      127
 91
        4
280
     0
281
     1
  0
CLASS
  1
IMAGEDEF_REACTOR
  2
AcDbRasterImageDefReactor
  3
ISM
 90
        1
 91
        4
280
     0
281
     0
  0
CLASS
  1
IMAGEDEF
  2
AcDbRasterImageDef
  3
ISM
 90
        0
 91
        4
280
     0
281
     0
  0
CLASS
  1
RASTERVARIABLES
  2
AcDbRasterVariables
  3
ISM
 90
        0
 91
        1
280
     0
281
     0
  0
ENDSEC
  0
SECTION
  2
TABLES
  0
TABLE
  2
VPORT
  5
8
330
0
100
AcDbSymbolTable
 70
     2
  0
VPORT
  5
E7
330
8
100
AcDbSymbolTableRecord
100
AcDbViewportTableRecord
  2
*Active
 70
     0
 10
0.0
 20
0.0
 11
1.0
 21
1.0
 12
1042.929451885153
 22
-84.5018272932994
 13
0.0
 23
0.0
 14
0.5
 24
0.5
 15
0.5
 25
0.5
 16
0.0
 26
0.0
 36
1.0
 17
0.0
 27
0.0
 37
0.0
 40
0.2996450929549428
 41
1.747826086956521
 42
50.0
 43
0.0
 44
0.0
 50
0.0
 51
0.0
 71
     0
 72
  1000
 73
     1
 74
     3
 75
     0
 76
     0
 77
     0
 78
     0
281
     0
 65
     1
110
0.0
120
0.0
130
0.0
111
1.0
121
0.0
131
0.0
112
0.0
122
1.0
132
0.0
 79
     0
146
0.0
  0
ENDTAB
  0
TABLE
  2
LTYPE
  5
5
330
0
100
AcDbSymbolTable
 70
     1
  0
LTYPE
  5
14
330
5
100
AcDbSymbolTableRecord
100
AcDbLinetypeTableRecord
  2
ByBlock
 70
     0
  3

 72
    65
 73
     0
 40
0.0
  0
LTYPE
  5
15
330
5
100
AcDbSymbolTableRecord
100
AcDbLinetypeTableRecord
  2
ByLayer
 70
     0
  3

 72
    65
 73
     0
 40
0.0
  0
LTYPE
  5
16
330
5
100
AcDbSymbolTableRecord
100
AcDbLinetypeTableRecord
  2
Continuous
 70
     0
  3
Solid line
 72
    65
 73
     0
 40
0.0
  0
ENDTAB
  0
TABLE
  2
LAYER
  5
2
330
0
100
AcDbSymbolTable
 70
     3
  0
LAYER
  5
10
330
2
100
AcDbSymbolTableRecord
100
AcDbLayerTableRecord
  2
0
 70
     0
 62
     7
  6
Continuous
370
    -3
390
F
  0
LAYER
  5
92
330
2
100
AcDbSymbolTableRecord
100
AcDbLayerTableRecord
  2
slateoutline
 70
     0
 62
     7
  6
Continuous
370
    13
390
F
  0
LAYER
  5
93
330
2
100
AcDbSymbolTableRecord
100
AcDbLayerTableRecord
  2
outline
 70
     0
 62
     7
  6
Continuous
370
    18
390
F
  0
ENDTAB
  0
TABLE
  2
STYLE
  5
3
330
0
100
AcDbSymbolTable
 70
     1
  0
STYLE
  5
11
330
3
100
AcDbSymbolTableRecord
100
AcDbTextStyleTableRecord
  2
Standard
 70
     0
 40
0.0
 41
1.0
 50
0.0
 71
     0
 42
0.2
  3
txt
  4

  0
ENDTAB
  0
TABLE
  2
VIEW
  5
6
330
0
100
AcDbSymbolTable
 70
     0
  0
ENDTAB
  0
TABLE
  2
UCS
  5
7
330
0
100
AcDbSymbolTable
 70
     0
  0
ENDTAB
  0
TABLE
  2
APPID
  5
9
330
0
100
AcDbSymbolTable
 70
     4
  0
APPID
  5
12
330
9
100
AcDbSymbolTableRecord
100
AcDbRegAppTableRecord
  2
ACAD
 70
     0
  0
APPID
  5
95
330
9
100
AcDbSymbolTableRecord
100
AcDbRegAppTableRecord
  2
ACAD_PSEXT
 70
     0
  0
APPID
  5
96
330
9
100
AcDbSymbolTableRecord
100
AcDbRegAppTableRecord
  2
ADE
 70
     0
  0
APPID
  5
DA
330
9
100
AcDbSymbolTableRecord
100
AcDbRegAppTableRecord
  2
DCO15
 70
     0
  0
ENDTAB
  0
TABLE
  2
DIMSTYLE
  5
A
330
0
100
AcDbSymbolTable
 70
     2
100
AcDbDimStyleTable
 71
     0
  0
DIMSTYLE
105
27
330
A
100
AcDbSymbolTableRecord
100
AcDbDimStyleTableRecord
  2
Standard
 70
     0
340
11
  0
DIMSTYLE
105
94
330
A
100
AcDbSymbolTableRecord
100
AcDbDimStyleTableRecord
  2
ISO-25
 70
     0
 41
2.5
 42
0.625
 43
3.75
 44
1.25
 73
     0
 74
     0
 77
     1
 78
     8
140
2.5
141
2.5
143
0.03937007874016
147
0.625
171
     3
172
     1
271
     2
272
     2
274
     3
278
    44
283
     0
284
     8
340
11
  0
ENDTAB
  0
TABLE
  2
BLOCK_RECORD
  5
1
330
0
100
AcDbSymbolTable
 70
     2
  0
BLOCK_RECORD
  5
1F
330
1
100
AcDbSymbolTableRecord
100
AcDbBlockTableRecord
  2
*Model_Space
340
22
  0
BLOCK_RECORD
  5
58
330
1
100
AcDbSymbolTableRecord
100
AcDbBlockTableRecord
  2
*Paper_Space
340
59
  0
BLOCK_RECORD
  5
5D
330
1
100
AcDbSymbolTableRecord
100
AcDbBlockTableRecord
  2
*Paper_Space0
340
5E
  0
BLOCK_RECORD
  5
89
102
{ACAD_XDICTIONARY
360
8A
102
}
330
1
100
AcDbSymbolTableRecord
100
AcDbBlockTableRecord
  2
Logos block for Autocad drawings
340
0
102
{BLKREFS
331
D7
102
}
  0
ENDTAB
  0
ENDSEC
  0
SECTION
  2
BLOCKS
  0
BLOCK
  5
20
330
1F
100
AcDbEntity
  8
0
100
AcDbBlockBegin
  2
*Model_Space
 70
     0
 10
0.0
 20
0.0
 30
0.0
  3
*Model_Space
  1

  0
ENDBLK
  5
21
330
1F
100
AcDbEntity
  8
0
100
AcDbBlockEnd
  0
BLOCK
  5
5A
330
58
100
AcDbEntity
 67
     1
  8
0
100
AcDbBlockBegin
  2
*Paper_Space
 70
     0
 10
0.0
 20
0.0
 30
0.0
  3
*Paper_Space
  1

  0
ENDBLK
  5
5B
330
58
100
AcDbEntity
 67
     1
  8
0
100
AcDbBlockEnd
  0
BLOCK
  5
5F
330
5D
100
AcDbEntity
  8
0
100
AcDbBlockBegin
  2
*Paper_Space0
 70
     0
 10
0.0
 20
0.0
 30
0.0
  3
*Paper_Space0
  1

  0
ENDBLK
  5
60
330
5D
100
AcDbEntity
  8
0
100
AcDbBlockEnd
  0
BLOCK
  5
8C
330
89
100
AcDbEntity
  8
0
100
AcDbBlockBegin
  2
Logos block for Autocad drawings
 70
     0
 10
0.0
 20
0.0
 30
0.0
  3
Logos block for Autocad drawings
  1

  0
IMAGE
  5
8D
330
89
100
AcDbEntity
  8
0
 92
      140
310
8C000000010000008400000006000000050000000000000000000000000000000000000000000000000000003D12CAE949ABD73C082A05715375354000000000000000001BE25817B7913140082A05715375354000000000000000001BE25817B7913140000000000000000000000000000000000000000000000000000000
310
00000000000000000000000000
100
AcDbRasterImage
 90
        0
 10
0.0
 20
0.0
 30
0.0
 11
0.0042643689320388
 21
0.0
 31
0.0
 12
0.0
 22
0.0042643689320388
 32
0.0
 13
4120.0
 23
5032.0
340
BA
 70
     7
280
     0
281
    50
282
    50
283
     0
360
8E
 71
     1
 91
        2
 14
-0.5
 24
-0.5
 14
4119.5
 24
5031.5
  0
IMAGE
  5
8F
330
89
100
AcDbEntity
  8
0
 92
      140
310
8C000000010000008400000006000000050000000080F12AF0CE35400000E04FF11DD33F00000000000000000080F12AF0CE3540ACE212681AF620400000000000000000C00BBEAA0AAA4740ACE212681AF620400000000000000000C00BBEAA0AAA47400000E04FF11DD33F00000000000000000080F12AF0CE35400000E0
310
4FF11DD33F0000000000000000
100
AcDbRasterImage
 90
        0
 10
21.80835216899868
 20
0.2987025527982041
 30
0.0
 11
0.0031836450050972
 21
0.0
 31
0.0
 12
0.0
 22
0.0031836450050972
 32
0.0
 13
8016.0
 23
2570.0
340
B7
 70
     7
280
     0
281
    50
282
    50
283
     0
360
90
 71
     1
 91
        2
 14
-0.5
 24
-0.5
 14
8015.500000000001
 24
2569.5
  0
ENDBLK
  5
91
330
89
100
AcDbEntity
  8
0
100
AcDbBlockEnd
  0
ENDSEC
  0
SECTION
  2
ENTITIES
  0
LWPOLYLINE
  5
BE
330
1F
100
AcDbEntity
  8
slateoutline
100
AcDbPolyline
 90
        2
 70
     0
 43
0.0
 38
-979.7860554346231
 10
1042.872392394471
 20
-84.60775050825715
 10
1042.97239239447
 20
-84.60775050825715
  0
LWPOLYLINE
  5
BF
330
1F
100
AcDbEntity
  8
outline
100
AcDbPolyline
 90
        4
 70
     1
 43
0.0
 38
-979.7860554346231
 10
1042.740359302831
 20
-84.6355427622274
 10
1043.118544467476
 20
-84.6355427622274
 10
1043.118544467476
 20
-84.36811182437159
 10
1042.740359302831
 20
-84.36811182437159
  0
LWPOLYLINE
  5
C0
330
1F
100
AcDbEntity
  8
slateoutline
100
AcDbPolyline
 90
        4
 70
     1
 43
0.0
 38
-979.7860554346231
 10
1042.719451885153
 20
-84.35332729329941
 10
1043.139451885153
 20
-84.35332729329941
 10
1043.139451885153
 20
-84.65032729329939
 10
1042.719451885153
 20
-84.65032729329939
  0
LWPOLYLINE
  5
C1
330
1F
100
AcDbEntity
  8
slateoutline
100
AcDbPolyline
 90
        4
 70
     0
 43
0.0
 38
-979.7860554346231
 10
1042.87239239447
 20
-84.60775050825711
 10
1042.87239239447
 20
-84.6117044394883
 10
1042.97239239447
 20
-84.6117044394883
 10
1042.97239239447
 20
-84.60775050825711
  0
LWPOLYLINE
  5
C2
330
1F
100
AcDbEntity
  8
slateoutline
100
AcDbPolyline
 90
        3
 70
     0
 43
0.0
 38
-979.7860554346231
 10
1042.87239239447
 20
-84.60972747387268
 10
1042.88239239447
 20
-84.60972747387268
 10
1042.88239239447
 20
-84.60775050825711
  0
LWPOLYLINE
  5
C3
330
1F
100
AcDbEntity
  8
slateoutline
100
AcDbPolyline
 90
        3
 70
     0
 43
0.0
 38
-979.7860554346231
 10
1042.892392394469
 20
-84.6117044394883
 10
1042.892392394469
 20
-84.6117044394883
 10
1042.89239239447
 20
-84.60775050825706
  0
LWPOLYLINE
  5
C4
330
1F
100
AcDbEntity
  8
slateoutline
100
AcDbPolyline
 90
        3
 70
     0
 43
0.0
 38
-979.7860554346231
 10
1042.89239239447
 20
-84.60972747387257
 10
1042.902392394469
 20
-84.60972747387257
 10
1042.902392394469
 20
-84.607750508257
  0
LWPOLYLINE
  5
C5
330
1F
100
AcDbEntity
  8
slateoutline
100
AcDbPolyline
 90
        3
 70
     0
 43
0.0
 38
-979.7860554346231
 10
1042.912392394468
 20
-84.6117044394883
 10
1042.912392394469
 20
-84.6117044394883
 10
1042.912392394469
 20
-84.60775050825693
  0
LWPOLYLINE
  5
C6
330
1F
100
AcDbEntity
  8
slateoutline
100
AcDbPolyline
 90
        3
 70
     0
 43
0.0
 38
-979.7860554346231
 10
1042.912392394469
 20
-84.60972747387245
 10
1042.922392394469
 20
-84.60972747387245
 10
1042.922392394469
 20
-84.60775050825688
  0
LWPOLYLINE
  5
C7
330
1F
100
AcDbEntity
  8
slateoutline
100
AcDbPolyline
 90
        2
 70
     0
 43
0.0
 38
-979.7860554346231
 10
1042.88239239447
 20
-84.60972747387595
 10
1042.88239239447
 20
-84.61170443948828
  0
LWPOLYLINE
  5
C8
330
1F
100
AcDbEntity
  8
slateoutline
100
AcDbPolyline
 90
        2
 70
     0
 43
0.0
 38
-979.7860554346231
 10
1042.902392394469
 20
-84.60972747387254
 10
1042.902392394469
 20
-84.61170443948828
  0
LWPOLYLINE
  5
C9
330
1F
100
AcDbEntity
  8
slateoutline
100
AcDbPolyline
 90
        2
 70
     0
 43
0.0
 38
-979.7860554346231
 10
1042.922392394469
 20
-84.60972747387243
 10
1042.922392394469
 20
-84.60972747387243
  0
LWPOLYLINE
  5
CA
330
1F
100
AcDbEntity
  8
slateoutline
100
AcDbPolyline
 90
        2
 70
     0
 43
0.0
 38
-979.7860554346231
 10
1042.922392394469
 20
-84.6097274738724
 10
1042.922392394469
 20
-84.61170443948828
  0
MTEXT
  5
CB
330
1F
100
AcDbEntity
  8
slateoutline
100
AcDbMText
 10
1042.748925342675
 20
-84.58307314920293
 30
-979.7860554346229
 40
0.0019
 41
0.0942999443009255
 71
     1
 72
     5
  1
{\fArial|b0|i0|c0|p34;\H2.632x;Y Bont/ The Bridge\PColeg Harlech\PUnfolded elevations\P\H0.7999x;NPRN: 409586\PNGR: SH5779530736\PSurveyed by: SF \P1:100 at A3}
 73
     1
 44
1.0
  0
MTEXT
  5
CC
330
1F
100
AcDbEntity
  8
slateoutline
100
AcDbMText
 10
1042.871636553004
 20
-84.60316622203539
 30
-979.7860554346227
 40
0.003
 41
0.0051649371765007
 71
     1
 72
     5
  1
{\fArial|b0|i0|c0|p34;0}
 73
     1
 44
1.0
  0
MTEXT
  5
CD
330
1F
100
AcDbEntity
  8
slateoutline
100
AcDbMText
 10
1042.88158852711
 20
-84.60316622203539
 30
-979.7860554346229
 40
0.003
 41
0.0051649371765007
 71
     1
 72
     5
  1
{\fArial|b0|i0|c0|p34;1}
 73
     1
 44
1.0
  0
MTEXT
  5
CE
330
1F
100
AcDbEntity
  8
slateoutline
100
AcDbMText
 10
1042.891414507153
 20
-84.60316622203539
 30
-979.7860554346227
 40
0.003
 41
0.0051649371765007
 71
     1
 72
     5
  1
{\fArial|b0|i0|c0|p34;2}
 73
     1
 44
1.0
  0
MTEXT
  5
CF
330
1F
100
AcDbEntity
  8
slateoutline
100
AcDbMText
 10
1042.90149243435
 20
-84.60316622203539
 30
-979.7860554346227
 40
0.003
 41
0.0051649371765007
 71
     1
 72
     5
  1
{\fArial|b0|i0|c0|p34;3}
 73
     1
 44
1.0
  0
MTEXT
  5
D0
330
1F
100
AcDbEntity
  8
slateoutline
100
AcDbMText
 10
1042.911570361547
 20
-84.60316622203539
 30
-979.7860554346227
 40
0.003
 41
0.0051649371765007
 71
     1
 72
     5
  1
{\fArial|b0|i0|c0|p34;4}
 73
     1
 44
1.0
  0
MTEXT
  5
D1
330
1F
100
AcDbEntity
  8
slateoutline
100
AcDbMText
 10
1042.921522335653
 20
-84.60316622203539
 30
-979.7860554346229
 40
0.003
 41
0.0051649371765007
 71
     1
 72
     5
  1
{\fArial|b0|i0|c0|p34;5}
 73
     1
 44
1.0
  0
MTEXT
  5
D2
330
1F
100
AcDbEntity
  8
slateoutline
100
AcDbMText
 10
1042.969140593902
 20
-84.60316622203539
 30
-979.7860554346229
 40
0.003
 41
0.01116
 71
     1
 72
     5
  1
{\fArial|b0|i0|c0|p34;10m}
 73
     1
 44
1.0
  0
IMAGE
  5
D3
330
1F
100
AcDbEntity
  8
slateoutline
 92
      140
310
8C000000010000008400000006000000050000006B01E7101C4B904046F78AB1601E55C061846ED7499E8EC06B01E7101C4B90404740720E531855C061846ED7499E8EC01B4E9173534C90404740720E531855C061846ED7499E8EC01B4E9173534C904046F78AB1601E55C061846ED7499E8EC06B01E7101C4B904046F78A
310
B1601E55C061846ED7499E8EC0
100
AcDbRasterImage
 90
        0
 10
1042.777408227407
 20
-84.47465170451058
 30
-979.7860554346227
 11
0.0002542536082718
 21
0.0
 31
0.0
 12
0.0
 22
0.0002542536082718
 32
0.0
 13
1196.0
 23
372.0
340
B9
 70
     7
280
     0
281
    50
282
    50
283
     0
360
D4
 71
     1
 91
        2
 14
-0.5
 24
-0.5
 14
1195.5
 24
371.5
  0
IMAGE
  5
D5
330
1F
100
AcDbEntity
  8
slateoutline
 92
      140
310
8C00000001000000840000000600000005000000F8F590DC1B4B9040C0297AF7E82455C05F846ED7499E8EC0F8F590DC1B4B904004A3590DC01E55C05F846ED7499E8EC08F59E7A7534C904004A3590DC01E55C05F846ED7499E8EC08F59E7A7534C9040C0297AF7E82455C05F846ED7499E8EC0F8F590DC1B4B9040C0297A
310
F7E82455C05F846ED7499E8EC0
100
AcDbRasterImage
 90
        0
 10
1042.777208580983
 20
-84.57671915941228
 30
-979.7860554346224
 11
0.0002539504656728
 21
0.0
 31
0.0
 12
0.0
 22
0.0002539504656728
 32
0.0
 13
1199.0
 23
379.0
340
B8
 70
     7
280
     0
281
    50
282
    50
283
     0
360
D6
 71
     1
 91
        2
 14
-0.5
 24
-0.5
 14
1198.5
 24
378.5
  0
INSERT
  5
D7
330
1F
100
AcDbEntity
  8
outline
100
AcDbBlockReference
  2
Logos block for Autocad drawings
 10
1043.010392654818
 20
-84.62654668494366
 30
-979.786055434622
 41
0.0021247931497328
 42
0.0021247931496902
 43
0.0021247931497328
  0
ENDSEC
  0
SECTION
  2
OBJECTS
  0
DICTIONARY
  5
C
330
0
100
AcDbDictionary
281
     1
  3
ACAD_COLOR
350
73
  3
ACAD_GROUP
350
D
  3
ACAD_IMAGE_DICT
350
B6
  3
ACAD_IMAGE_VARS
350
BD
  3
ACAD_LAYOUT
350
1A
  3
ACAD_MATERIAL
350
72
  3
ACAD_MLINESTYLE
350
17
  3
ACAD_PLOTSETTINGS
350
19
  3
ACAD_PLOTSTYLENAME
350
E
  3
AcDbVariableDictionary
350
66
  3
ADE_QUERY_LIBRARY
350
DC
  3
ASE_INDEX_DICTIONARY
350
D9
1001
ADE
1000
ADE02C004
1000
[Query]
1000
CaseSensitiveMatch=0
1000
SaveCurrQueryInSession=1
1000
MkSelSetWithQryObj=0
1000
ShowBlockAsInsPt=0
1000
CreateAssociativeHatchObjects=0
1000
ReferenceBoundaryForAreaLocation=1
1000
ShowImageAsBoundary=1
1000
DefaultJoinOperator=2
1000
ColorForAdd=red
1000
ColorForRemove=red
1000
BlockLocnForQuery=1
1000
TextLocnForQuery=1
1000
[Save Back]
1000
RedefineBlockDefinitions=1
1000
RedefineLayerDefinitions=1
1000
RedefineTextStyleDefinitions=1
1000
RemoveUnusedGroups=1
1000
EraseSavedBackObjects=1
1000
RemoveLockAfterSave=1
1000
CreateHistoryFileOfChanges=0
1000
CreateBackupFileOfSourceDwg=1
1000
DontAddObjectsToSaveSet=0
1000
MarkObjectsForEditingWithoutPrompting=0
1000
[Coordinate Transformation]
1000
RestoreLastActiveDwgsOnStartup=1
1000
ActivateDwgsOnAttach=1
1000
AdjustSizesAndScalesForChangesInUnits=1
1000
AdjustRotationsForMapDistortions=1
1000
AdjustSizesAndScalesForMapDistortions=1
1000
AdjustElevations=1
1000
AdjustZeroRotationObjects=1
1000
ReconnectDbOnWSOpen=1
1000
NoOfSQLConditionsInHistory=10
  0
DICTIONARY
  5
8A
330
89
100
AcDbDictionary
280
     1
281
     1
  3
ACAD_SORTENTS
360
8B
  0
IMAGEDEF_REACTOR
  5
8E
330
8D
100
AcDbRasterImageDefReactor
 90
        2
330
8D
  0
IMAGEDEF_REACTOR
  5
90
330
8F
100
AcDbRasterImageDefReactor
 90
        2
330
8F
  0
IMAGEDEF_REACTOR
  5
D4
330
D3
100
AcDbRasterImageDefReactor
 90
        2
330
D3
  0
IMAGEDEF_REACTOR
  5
D6
330
D5
100
AcDbRasterImageDefReactor
 90
        2
330
D5
  0
DICTIONARY
  5
73
102
{ACAD_REACTORS
330
C
102
}
330
C
100
AcDbDictionary
281
     1
  0
DICTIONARY
  5
D
102
{ACAD_REACTORS
330
C
102
}
330
C
100
AcDbDictionary
281
     1
  0
DICTIONARY
  5
B6
102
{ACAD_REACTORS
330
C
102
}
330
C
100
AcDbDictionary
281
     1
  3
Assembly logo
350
B7
  3
current
350
B8
  3
original
350
B9
  3
RCAHMW logo
350
BA
  0
RASTERVARIABLES
  5
BD
102
{ACAD_REACTORS
330
C
102
}
330
C
100
AcDbRasterVariables
 90
        0
 70
     1
 71
     1
 72
     5
  0
DICTIONARY
  5
1A
102
{ACAD_REACTORS
330
C
102
}
330
C
100
AcDbDictionary
281
     1
  3
Layout1
350
59
  3
Layout2
350
5E
  3
Model
350
22
  0
DICTIONARY
  5
72
102
{ACAD_REACTORS
330
C
102
}
330
C
100
AcDbDictionary
281
     1
  0
DICTIONARY
  5
17
102
{ACAD_REACTORS
330
C
102
}
330
C
100
AcDbDictionary
281
     1
  3
Standard
350
18
  0
DICTIONARY
  5
19
102
{ACAD_REACTORS
330
C
102
}
330
C
100
AcDbDictionary
281
     1
  0
ACDBDICTIONARYWDFLT
  5
E
102
{ACAD_REACTORS
330
C
102
}
330
C
100
AcDbDictionary
281
     1
  3
Normal
350
F
100
AcDbDictionaryWithDefault
340
F
  0
DICTIONARY
  5
66
102
{ACAD_REACTORS
330
C
102
}
330
C
100
AcDbDictionary
281
     1
  3
DIMASSOC
350
67
  3
HIDETEXT
350
6B
  0
DICTIONARY
  5
DC
102
{ACAD_REACTORS
330
C
102
}
330
C
100
AcDbDictionary
281
     1
  3
_CurrQry
350
E6
  0
DICTIONARY
  5
D9
102
{ACAD_REACTORS
330
C
102
}
330
C
100
AcDbDictionary
281
     1
  3
ASEBlockHierarchyIndexRecord
350
DB
1001
DCO15
1040
1670127114.801
  0
SORTENTSTABLE
  5
8B
102
{ACAD_REACTORS
330
8A
102
}
330
8A
100
AcDbSortentsTable
330
89
  0
IMAGEDEF
  5
B7
102
{ACAD_REACTORS
330
90
330
B6
102
}
330
B6
100
AcDbRasterImageDef
 90
        0
  1
H:\Share\All\SURVEY BRANCH\Templates\LOGOS\Assembly logo.tif
 10
8016.0
 20
2570.0
 11
0.0211666666666667
 21
0.0211666666666667
280
     1
281
     5
  0
IMAGEDEF
  5
B8
102
{ACAD_REACTORS
330
B6
330
D6
102
}
330
B6
100
AcDbRasterImageDef
 90
        0
  1
E:\Share\All\SURVEY BRANCH\Detailed Sites and Buildings\Jonah Jones Harlech, 30th April 2009\current.tif
 10
1199.0
 20
379.0
 11
0.3527777777777778
 21
0.3527777777777778
280
     1
281
     5
  0
IMAGEDEF
  5
B9
102
{ACAD_REACTORS
330
B6
330
D4
102
}
330
B6
100
AcDbRasterImageDef
 90
        0
  1
E:\Share\All\SURVEY BRANCH\Detailed Sites and Buildings\Jonah Jones Harlech, 30th April 2009\original.tif
 10
1196.0
 20
372.0
 11
0.3527777777777778
 21
0.3527777777777778
280
     1
281
     5
  0
IMAGEDEF
  5
BA
102
{ACAD_REACTORS
330
8E
330
B6
102
}
330
B6
100
AcDbRasterImageDef
 90
        0
  1
H:\Share\All\SURVEY BRANCH\Templates\LOGOS\RCAHMW logo.tif
 10
4120.0
 20
5032.0
 11
0.0208333333333333
 21
0.0208333333333333
280
     1
281
     2
  0
LAYOUT
  5
59
102
{ACAD_REACTORS
330
1A
102
}
330
1A
100
AcDbPlotSettings
  1

  2
None
  4

  6

 40
0.0
 41
0.0
 42
0.0
 43
0.0
 44
0.0
 45
0.0
 46
0.0
 47
0.0
 48
0.0
 49
0.0
140
0.0
141
0.0
142
1.0
143
1.0
 70
   688
 72
     0
 73
     0
 74
     5
  7

 75
    16
147
1.0
 76
     0
 77
     2
 78
   300
148
0.0
149
0.0
100
AcDbLayout
  1
Layout1
 70
     1
 71
     1
 10
0.0
 20
0.0
 11
12.0
 21
9.0
 12
0.0
 22
0.0
 32
0.0
 14
0.0
 24
0.0
 34
0.0
 15
0.0
 25
0.0
 35
0.0
146
0.0
 13
0.0
 23
0.0
 33
0.0
 16
1.0
 26
0.0
 36
0.0
 17
0.0
 27
1.0
 37
0.0
 76
     0
330
58
  0
LAYOUT
  5
5E
102
{ACAD_REACTORS
330
1A
102
}
330
1A
100
AcDbPlotSettings
  1

  2
None
  4

  6

 40
0.0
 41
0.0
 42
0.0
 43
0.0
 44
0.0
 45
0.0
 46
0.0
 47
0.0
 48
0.0
 49
0.0
140
0.0
141
0.0
142
1.0
143
1.0
 70
   688
 72
     0
 73
     0
 74
     5
  7

 75
    16
147
1.0
 76
     0
 77
     2
 78
   300
148
0.0
149
0.0
100
AcDbLayout
  1
Layout2
 70
     1
 71
     2
 10
0.0
 20
0.0
 11
12.0
 21
9.0
 12
0.0
 22
0.0
 32
0.0
 14
0.0
 24
0.0
 34
0.0
 15
0.0
 25
0.0
 35
0.0
146
0.0
 13
0.0
 23
0.0
 33
0.0
 16
1.0
 26
0.0
 36
0.0
 17
0.0
 27
1.0
 37
0.0
 76
     0
330
5D
  0
LAYOUT
  5
22
102
{ACAD_REACTORS
330
1A
102
}
330
1A
100
AcDbPlotSettings
  1

  2
none_device
  4
ANSI_A_(8.50_x_11.00_Inches)
  6

 40
6.349999904632568
 41
19.04999923706055
 42
6.350006103515625
 43
19.04998779296875
 44
215.8999938964844
 45
279.3999938964844
 46
0.0
 47
0.0
 48
0.0
 49
0.0
140
0.0
141
0.0
142
1.0
143
2.584895464708373
 70
 11952
 72
     0
 73
     1
 74
     0
  7

 75
     0
147
0.3868628397755418
 76
     0
 77
     2
 78
   300
148
0.0
149
0.0
100
AcDbLayout
  1
Model
 70
     1
 71
     0
 10
0.0
 20
0.0
 11
12.0
 21
9.0
 12
0.0
 22
0.0
 32
0.0
 14
0.0
 24
0.0
 34
0.0
 15
0.0
 25
0.0
 35
0.0
146
0.0
 13
0.0
 23
0.0
 33
0.0
 16
1.0
 26
0.0
 36
0.0
 17
0.0
 27
1.0
 37
0.0
 76
     0
330
1F
  0
MLINESTYLE
  5
18
102
{ACAD_REACTORS
330
17
102
}
330
17
100
AcDbMlineStyle
  2
STANDARD
 70
     0
  3

 62
   256
 51
90.0
 52
90.0
 71
     2
 49
0.5
 62
   256
  6
BYLAYER
 49
-0.5
 62
   256
  6
BYLAYER
  0
ACDBPLACEHOLDER
  5
F
102
{ACAD_REACTORS
330
E
102
}
330
E
  0
DICTIONARYVAR
  5
67
102
{ACAD_REACTORS
330
66
102
}
330
66
100
DictionaryVariables
280
     0
  1
2
  0
DICTIONARYVAR
  5
6B
102
{ACAD_REACTORS
330
66
102
}
330
66
100
DictionaryVariables
280
     0
  1
1
  0
XRECORD
  5
E6
102
{ACAD_REACTORS
330
DC
102
}
330
DC
100
AcDbXrecord
280
     1
1000
ADE02C001
1070
     1
1070
     0
1002
{
1002
}
1002
{
1002
}
1002
{
1002
}
1000

  0
XRECORD
  5
DB
102
{ACAD_REACTORS
330
D9
102
}
330
D9
100
AcDbXrecord
280
     1
330
D7
  0
ENDSEC
  0
EOF
