  0
SECTION
  2
HEADER
  9
$ACADVER
  1
AC1018
  9
$ACADMAINTVER
 70
    76
  9
$DWGCODEPAGE
  3
ANSI_1252
  9
$INSBASE
 10
0.0
 20
0.0
 30
0.0
  9
$EXTMIN
 10
8.260199512296296
 20
65.30835351903329
 30
-0.0000000349181948
  9
$EXTMAX
 10
55.26966438220606
 20
95.01619664781504
 30
0.0000000814935746
  9
$LIMMIN
 10
0.0
 20
0.0
  9
$LIMMAX
 10
12.0
 20
9.0
  9
$ORTHOMODE
 70
     1
  9
$REGENMODE
 70
     1
  9
$FILLMODE
 70
     1
  9
$QTEXTMODE
 70
     0
  9
$MIRRTEXT
 70
     0
  9
$LTSCALE
 40
1.0
  9
$ATTMODE
 70
     1
  9
$TEXTSIZE
 40
0.2
  9
$TRACEWID
 40
0.05
  9
$TEXTSTYLE
  7
Standard
  9
$CLAYER
  8
19th century
  9
$CELTYPE
  6
Continuous
  9
$CECOLOR
 62
   256
  9
$CELTSCALE
 40
0.005
  9
$DISPSILH
 70
     0
  9
$DIMSCALE
 40
1.0
  9
$DIMASZ
 40
0.18
  9
$DIMEXO
 40
0.0625
  9
$DIMDLI
 40
0.38
  9
$DIMRND
 40
0.0
  9
$DIMDLE
 40
0.0
  9
$DIMEXE
 40
0.18
  9
$DIMTP
 40
0.0
  9
$DIMTM
 40
0.0
  9
$DIMTXT
 40
0.18
  9
$DIMCEN
 40
0.09
  9
$DIMTSZ
 40
0.0
  9
$DIMTOL
 70
     0
  9
$DIMLIM
 70
     0
  9
$DIMTIH
 70
     1
  9
$DIMTOH
 70
     1
  9
$DIMSE1
 70
     0
  9
$DIMSE2
 70
     0
  9
$DIMTAD
 70
     0
  9
$DIMZIN
 70
     0
  9
$DIMBLK
  1

  9
$DIMASO
 70
     1
  9
$DIMSHO
 70
     1
  9
$DIMPOST
  1

  9
$DIMAPOST
  1

  9
$DIMALT
 70
     0
  9
$DIMALTD
 70
     2
  9
$DIMALTF
 40
25.4
  9
$DIMLFAC
 40
1.0
  9
$DIMTOFL
 70
     0
  9
$DIMTVP
 40
0.0
  9
$DIMTIX
 70
     0
  9
$DIMSOXD
 70
     0
  9
$DIMSAH
 70
     0
  9
$DIMBLK1
  1

  9
$DIMBLK2
  1

  9
$DIMSTYLE
  2
Standard
  9
$DIMCLRD
 70
     0
  9
$DIMCLRE
 70
     0
  9
$DIMCLRT
 70
     0
  9
$DIMTFAC
 40
1.0
  9
$DIMGAP
 40
0.09
  9
$DIMJUST
 70
     0
  9
$DIMSD1
 70
     0
  9
$DIMSD2
 70
     0
  9
$DIMTOLJ
 70
     1
  9
$DIMTZIN
 70
     0
  9
$DIMALTZ
 70
     0
  9
$DIMALTTZ
 70
     0
  9
$DIMUPT
 70
     0
  9
$DIMDEC
 70
     4
  9
$DIMTDEC
 70
     4
  9
$DIMALTU
 70
     2
  9
$DIMALTTD
 70
     2
  9
$DIMTXSTY
  7
Standard
  9
$DIMAUNIT
 70
     0
  9
$DIMADEC
 70
     0
  9
$DIMALTRND
 40
0.0
  9
$DIMAZIN
 70
     0
  9
$DIMDSEP
 70
    46
  9
$DIMATFIT
 70
     3
  9
$DIMFRAC
 70
     0
  9
$DIMLDRBLK
  1

  9
$DIMLUNIT
 70
     2
  9
$DIMLWD
 70
    -2
  9
$DIMLWE
 70
    -2
  9
$DIMTMOVE
 70
     0
  9
$LUNITS
 70
     2
  9
$LUPREC
 70
     4
  9
$SKETCHINC
 40
0.1
  9
$FILLETRAD
 40
0.0
  9
$AUNITS
 70
     0
  9
$AUPREC
 70
     0
  9
$MENU
  1
.
  9
$ELEVATION
 40
0.0
  9
$PELEVATION
 40
0.0
  9
$THICKNESS
 40
0.0
  9
$LIMCHECK
 70
     0
  9
$CHAMFERA
 40
0.0
  9
$CHAMFERB
 40
0.0
  9
$CHAMFERC
 40
0.0
  9
$CHAMFERD
 40
0.0
  9
$SKPOLY
 70
     0
  9
$TDCREATE
 40
2453755.599758947
  9
$TDUCREATE
 40
2453755.599758947
  9
$TDUPDATE
 40
2453780.431670602
  9
$TDUUPDATE
 40
2453780.431670602
  9
$TDINDWG
 40
0.7567662384
  9
$TDUSRTIMER
 40
0.7567662384
  9
$USRTIMER
 70
     1
  9
$ANGBASE
 50
0.0
  9
$ANGDIR
 70
     0
  9
$PDMODE
 70
     0
  9
$PDSIZE
 40
0.0
  9
$PLINEWID
 40
0.0
  9
$SPLFRAME
 70
     0
  9
$SPLINETYPE
 70
     6
  9
$SPLINESEGS
 70
     8
  9
$HANDSEED
  5
75D
  9
$SURFTAB1
 70
     6
  9
$SURFTAB2
 70
     6
  9
$SURFTYPE
 70
     6
  9
$SURFU
 70
     6
  9
$SURFV
 70
     6
  9
$UCSBASE
  2

  9
$UCSNAME
  2

  9
$UCSORG
 10
0.0
 20
0.0
 30
0.0
  9
$UCSXDIR
 10
1.0
 20
0.0
 30
0.0
  9
$UCSYDIR
 10
0.0
 20
1.0
 30
0.0
  9
$UCSORTHOREF
  2

  9
$UCSORTHOVIEW
 70
     0
  9
$UCSORGTOP
 10
0.0
 20
0.0
 30
0.0
  9
$UCSORGBOTTOM
 10
0.0
 20
0.0
 30
0.0
  9
$UCSORGLEFT
 10
0.0
 20
0.0
 30
0.0
  9
$UCSORGRIGHT
 10
0.0
 20
0.0
 30
0.0
  9
$UCSORGFRONT
 10
0.0
 20
0.0
 30
0.0
  9
$UCSORGBACK
 10
0.0
 20
0.0
 30
0.0
  9
$PUCSBASE
  2

  9
$PUCSNAME
  2

  9
$PUCSORG
 10
0.0
 20
0.0
 30
0.0
  9
$PUCSXDIR
 10
1.0
 20
0.0
 30
0.0
  9
$PUCSYDIR
 10
0.0
 20
1.0
 30
0.0
  9
$PUCSORTHOREF
  2

  9
$PUCSORTHOVIEW
 70
     0
  9
$PUCSORGTOP
 10
0.0
 20
0.0
 30
0.0
  9
$PUCSORGBOTTOM
 10
0.0
 20
0.0
 30
0.0
  9
$PUCSORGLEFT
 10
0.0
 20
0.0
 30
0.0
  9
$PUCSORGRIGHT
 10
0.0
 20
0.0
 30
0.0
  9
$PUCSORGFRONT
 10
0.0
 20
0.0
 30
0.0
  9
$PUCSORGBACK
 10
0.0
 20
0.0
 30
0.0
  9
$USERI1
 70
     0
  9
$USERI2
 70
     0
  9
$USERI3
 70
     0
  9
$USERI4
 70
     0
  9
$USERI5
 70
     0
  9
$USERR1
 40
0.0
  9
$USERR2
 40
0.0
  9
$USERR3
 40
0.0
  9
$USERR4
 40
0.0
  9
$USERR5
 40
0.0
  9
$WORLDVIEW
 70
     1
  9
$SHADEDGE
 70
     3
  9
$SHADEDIF
 70
    70
  9
$TILEMODE
 70
     1
  9
$MAXACTVP
 70
    64
  9
$PINSBASE
 10
0.0
 20
0.0
 30
0.0
  9
$PLIMCHECK
 70
     0
  9
$PEXTMIN
 10
0.0
 20
0.0
 30
0.0
  9
$PEXTMAX
 10
0.0
 20
0.0
 30
0.0
  9
$PLIMMIN
 10
0.0
 20
0.0
  9
$PLIMMAX
 10
12.0
 20
9.0
  9
$UNITMODE
 70
     0
  9
$VISRETAIN
 70
     1
  9
$PLINEGEN
 70
     0
  9
$PSLTSCALE
 70
     1
  9
$TREEDEPTH
 70
  3020
  9
$CMLSTYLE
  2
Standard
  9
$CMLJUST
 70
     0
  9
$CMLSCALE
 40
1.0
  9
$PROXYGRAPHICS
 70
     1
  9
$MEASUREMENT
 70
     0
  9
$CELWEIGHT
370
    -1
  9
$ENDCAPS
280
     0
  9
$JOINSTYLE
280
     0
  9
$LWDISPLAY
290
     0
  9
$INSUNITS
 70
     1
  9
$HYPERLINKBASE
  1

  9
$STYLESHEET
  1

  9
$XEDIT
290
     1
  9
$CEPSNTYPE
380
     0
  9
$PSTYLEMODE
290
     1
  9
$FINGERPRINTGUID
  2
{BD5A5D94-6545-4F47-B064-FFF72D875D24}
  9
$VERSIONGUID
  2
{F917D972-AB77-4147-9871-D73DC14C2EB0}
  9
$EXTNAMES
290
     1
  9
$PSVPSCALE
 40
0.0
  9
$OLESTARTUP
290
     0
  9
$SORTENTS
280
   127
  9
$INDEXCTL
280
     0
  9
$HIDETEXT
280
     1
  9
$XCLIPFRAME
290
     0
  9
$HALOGAP
280
     0
  9
$OBSCOLOR
 70
   257
  9
$OBSLTYPE
280
     0
  9
$INTERSECTIONDISPLAY
280
     0
  9
$INTERSECTIONCOLOR
 70
   257
  9
$DIMASSOC
280
     2
  9
$PROJECTNAME
  1

  0
ENDSEC
  0
SECTION
  2
CLASSES
  0
CLASS
  1
ACDBDICTIONARYWDFLT
  2
AcDbDictionaryWithDefault
  3
ObjectDBX Classes
 90
        0
 91
        1
280
     0
281
     0
  0
CLASS
  1
DICTIONARYVAR
  2
AcDbDictionaryVar
  3
ObjectDBX Classes
 90
        0
 91
        3
280
     0
281
     0
  0
CLASS
  1
TABLESTYLE
  2
AcDbTableStyle
  3
ObjectDBX Classes
 90
     2047
 91
        1
280
     0
281
     0
  0
CLASS
  1
SORTENTSTABLE
  2
AcDbSortentsTable
  3
ObjectDBX Classes
 90
        0
 91
        2
280
     0
281
     0
  0
CLASS
  1
IMAGE
  2
AcDbRasterImage
  3
ISM
 90
      127
 91
        2
280
     0
281
     1
  0
CLASS
  1
IMAGEDEF_REACTOR
  2
AcDbRasterImageDefReactor
  3
ISM
 90
        1
 91
        2
280
     0
281
     0
  0
CLASS
  1
IMAGEDEF
  2
AcDbRasterImageDef
  3
ISM
 90
        0
 91
        2
280
     0
281
     0
  0
CLASS
  1
RASTERVARIABLES
  2
AcDbRasterVariables
  3
ISM
 90
        0
 91
        1
280
     0
281
     0
  0
CLASS
  1
PLOTSETTINGS
  2
AcDbPlotSettings
  3
ObjectDBX Classes
 90
        0
 91
        1
280
     0
281
     0
  0
ENDSEC
  0
SECTION
  2
TABLES
  0
TABLE
  2
VPORT
  5
8
330
0
100
AcDbSymbolTable
 70
     8
  0
VPORT
  5
75C
330
8
100
AcDbSymbolTableRecord
100
AcDbViewportTableRecord
  2
*Active
 70
     0
 10
0.0
 20
0.0
 11
1.0
 21
1.0
 12
35.27599911301054
 22
77.5695352455555
 13
0.0
 23
0.0
 14
0.5
 24
0.5
 15
0.5
 25
0.5
 16
0.0
 26
0.0
 36
1.0
 17
0.0
 27
0.0
 37
0.0
 40
38.1415316205056
 41
1.625336927223719
 42
50.0
 43
0.0
 44
0.0
 50
0.0
 51
0.0
 71
     0
 72
  1000
 73
     1
 74
     3
 75
     0
 76
     0
 77
     0
 78
     0
281
     0
 65
     1
110
0.0
120
0.0
130
0.0
111
1.0
121
0.0
131
0.0
112
0.0
122
1.0
132
0.0
 79
     0
146
0.0
  0
ENDTAB
  0
TABLE
  2
LTYPE
  5
5
330
0
100
AcDbSymbolTable
 70
     4
  0
LTYPE
  5
14
330
5
100
AcDbSymbolTableRecord
100
AcDbLinetypeTableRecord
  2
ByBlock
 70
     0
  3

 72
    65
 73
     0
 40
0.0
  0
LTYPE
  5
15
330
5
100
AcDbSymbolTableRecord
100
AcDbLinetypeTableRecord
  2
ByLayer
 70
     0
  3

 72
    65
 73
     0
 40
0.0
  0
LTYPE
  5
16
330
5
100
AcDbSymbolTableRecord
100
AcDbLinetypeTableRecord
  2
Continuous
 70
     0
  3
Solid line
 72
    65
 73
     0
 40
0.0
  0
LTYPE
  5
492
330
5
100
AcDbSymbolTableRecord
100
AcDbLinetypeTableRecord
  2
DASHED2
 70
     0
  3
Dashed (.5x) _ _ _ _ _ _ _ _ _ _ _ _ _ _ _ _ _
 72
    65
 73
     2
 40
0.375
 49
0.25
 74
     0
 49
-0.125
 74
     0
  0
LTYPE
  5
4B2
330
5
100
AcDbSymbolTableRecord
100
AcDbLinetypeTableRecord
  2
DASHED
 70
     0
  3
Dashed __ __ __ __ __ __ __ __ __ __ __ __ __ _
 72
    65
 73
     2
 40
0.75
 49
0.5
 74
     0
 49
-0.25
 74
     0
  0
ENDTAB
  0
TABLE
  2
LAYER
  5
2
102
{ACAD_XDICTIONARY
360
90
102
}
330
0
100
AcDbSymbolTable
 70
    12
  0
LAYER
  5
10
330
2
100
AcDbSymbolTableRecord
100
AcDbLayerTableRecord
  2
0
 70
     0
 62
     7
  6
Continuous
370
    -3
390
F
  0
LAYER
  5
8B
330
2
100
AcDbSymbolTableRecord
100
AcDbLayerTableRecord
  2
outline
 70
     0
 62
     7
  6
Continuous
370
    30
390
F
1001
AcAecLayerStandard
1000

1000

  0
LAYER
  5
21C
330
2
100
AcDbSymbolTableRecord
100
AcDbLayerTableRecord
  2
Thick outline
 70
     0
 62
     7
  6
Continuous
370
    40
390
F
1001
AcAecLayerStandard
1000

1000

  0
LAYER
  5
28D
330
2
100
AcDbSymbolTableRecord
100
AcDbLayerTableRecord
  2
thin outline
 70
     0
 62
     7
  6
Continuous
370
    15
390
F
1001
AcAecLayerStandard
1000

1000

  0
LAYER
  5
2E1
330
2
100
AcDbSymbolTableRecord
100
AcDbLayerTableRecord
  2
16th century
 70
     0
 62
   253
  6
Continuous
370
    15
390
F
1001
AcAecLayerStandard
1000

1000

  0
LAYER
  5
2E2
330
2
100
AcDbSymbolTableRecord
100
AcDbLayerTableRecord
  2
1780s
 70
     0
 62
   251
  6
Continuous
370
    15
390
F
1001
AcAecLayerStandard
1000

1000

  0
LAYER
  5
2EB
330
2
100
AcDbSymbolTableRecord
100
AcDbLayerTableRecord
  2
hatch
 70
     0
 62
   -10
  6
Continuous
370
    30
390
F
1001
AcAecLayerStandard
1000

1000

  0
LAYER
  5
346
330
2
100
AcDbSymbolTableRecord
100
AcDbLayerTableRecord
  2
19th century
 70
     0
 62
     9
420
 13220260
  6
Continuous
370
    15
390
F
1001
AcAecLayerStandard
1000

1000

  0
LAYER
  5
347
330
2
100
AcDbSymbolTableRecord
100
AcDbLayerTableRecord
  2
20th century
 70
     0
 62
   254
420
 12841205
  6
Continuous
370
    15
390
F
1001
AcAecLayerStandard
1000

1000

  0
LAYER
  5
348
330
2
100
AcDbSymbolTableRecord
100
AcDbLayerTableRecord
  2
late 20th century
 70
     0
 62
   252
420
  9345673
430
DIC COLOR GUIDE(R)$DIC 608
  6
Continuous
370
    15
390
F
1001
AcAecLayerStandard
1000

1000

  0
LAYER
  5
5A2
330
2
100
AcDbSymbolTableRecord
100
AcDbLayerTableRecord
  2
thin line
 70
     0
 62
     7
  6
Continuous
370
    15
390
F
  0
LAYER
  5
5A3
330
2
100
AcDbSymbolTableRecord
100
AcDbLayerTableRecord
  2
1780
 70
     0
 62
   251
  6
Continuous
370
    -3
390
F
  0
ENDTAB
  0
TABLE
  2
STYLE
  5
3
330
0
100
AcDbSymbolTable
 70
     2
  0
STYLE
  5
11
330
3
100
AcDbSymbolTableRecord
100
AcDbTextStyleTableRecord
  2
Standard
 70
     0
 40
0.0
 41
1.0
 50
0.0
 71
     0
 42
0.2
  3
txt
  4

  0
STYLE
  5
491
330
3
100
AcDbSymbolTableRecord
100
AcDbTextStyleTableRecord
  2

 70
     1
 40
0.0
 41
1.0
 50
0.0
 71
     0
 42
0.2
  3
ltypeshp.shx
  4

  0
ENDTAB
  0
TABLE
  2
VIEW
  5
6
330
0
100
AcDbSymbolTable
 70
    19
  0
ENDTAB
  0
TABLE
  2
UCS
  5
7
330
0
100
AcDbSymbolTable
 70
     0
  0
ENDTAB
  0
TABLE
  2
APPID
  5
9
330
0
100
AcDbSymbolTable
 70
     5
  0
APPID
  5
12
330
9
100
AcDbSymbolTableRecord
100
AcDbRegAppTableRecord
  2
ACAD
 70
     0
  0
APPID
  5
8D
330
9
100
AcDbSymbolTableRecord
100
AcDbRegAppTableRecord
  2
AcAecLayerStandard
 70
     0
  0
APPID
  5
8E
330
9
100
AcDbSymbolTableRecord
100
AcDbRegAppTableRecord
  2
ADE
 70
     0
  0
APPID
  5
8F
330
9
100
AcDbSymbolTableRecord
100
AcDbRegAppTableRecord
  2
ACAD_PSEXT
 70
     0
  0
APPID
  5
1D6
330
9
100
AcDbSymbolTableRecord
100
AcDbRegAppTableRecord
  2
ACAD_EXEMPT_FROM_CAD_STANDARDS
 70
     0
  0
ENDTAB
  0
TABLE
  2
DIMSTYLE
  5
A
330
0
100
AcDbSymbolTable
 70
     3
100
AcDbDimStyleTable
 71
     1
340
27
  0
DIMSTYLE
105
27
330
A
100
AcDbSymbolTableRecord
100
AcDbDimStyleTableRecord
  2
Standard
 70
     0
340
11
  0
DIMSTYLE
105
8C
330
A
100
AcDbSymbolTableRecord
100
AcDbDimStyleTableRecord
  2
ISO-25
 70
     0
 41
2.5
 42
0.625
 43
3.75
 44
1.25
 73
     0
 74
     0
 77
     1
 78
     8
140
2.5
141
2.5
143
0.03937007874016
147
0.625
171
     3
172
     1
271
     2
272
     2
274
     3
278
    44
283
     0
284
     8
340
11
  0
ENDTAB
  0
TABLE
  2
BLOCK_RECORD
  5
1
330
0
100
AcDbSymbolTable
 70
     4
  0
BLOCK_RECORD
  5
1F
102
{ACAD_XDICTIONARY
360
2E6
102
}
330
1
100
AcDbSymbolTableRecord
100
AcDbBlockTableRecord
  2
*Model_Space
340
22
  0
BLOCK_RECORD
  5
58
330
1
100
AcDbSymbolTableRecord
100
AcDbBlockTableRecord
  2
*Paper_Space
340
59
  0
BLOCK_RECORD
  5
5D
330
1
100
AcDbSymbolTableRecord
100
AcDbBlockTableRecord
  2
*Paper_Space0
340
5E
  0
BLOCK_RECORD
  5
586
102
{ACAD_XDICTIONARY
360
587
102
}
330
1
100
AcDbSymbolTableRecord
100
AcDbBlockTableRecord
  2
A$C77EC45A0
340
0
102
{BLKREFS
331
5D6
102
}
1001
ACAD
1000
DesignCenter Data
1002
{
1070
     1
1070
     1
1002
}
  0
BLOCK_RECORD
  5
59B
330
1
100
AcDbSymbolTableRecord
100
AcDbBlockTableRecord
  2
Logos block for Autocad drawings
340
0
102
{BLKREFS
331
5D7
102
}
1001
ACAD
1000
DesignCenter Data
1002
{
1070
     1
1070
     4
1002
}
  0
ENDTAB
  0
ENDSEC
  0
SECTION
  2
BLOCKS
  0
BLOCK
  5
20
330
1F
100
AcDbEntity
  8
0
100
AcDbBlockBegin
  2
*Model_Space
 70
     0
 10
0.0
 20
0.0
 30
0.0
  3
*Model_Space
  1

  0
ENDBLK
  5
21
330
1F
100
AcDbEntity
  8
0
100
AcDbBlockEnd
  0
BLOCK
  5
5A
330
58
100
AcDbEntity
 67
     1
  8
0
100
AcDbBlockBegin
  2
*Paper_Space
 70
     0
 10
0.0
 20
0.0
 30
0.0
  3
*Paper_Space
  1

  0
ENDBLK
  5
5B
330
58
100
AcDbEntity
 67
     1
  8
0
100
AcDbBlockEnd
  0
BLOCK
  5
5F
330
5D
100
AcDbEntity
 67
     1
  8
0
100
AcDbBlockBegin
  2
*Paper_Space0
 70
     0
 10
0.0
 20
0.0
 30
0.0
  3
*Paper_Space0
  1

  0
ENDBLK
  5
60
330
5D
100
AcDbEntity
 67
     1
  8
0
100
AcDbBlockEnd
  0
BLOCK
  5
589
330
586
100
AcDbEntity
  8
0
100
AcDbBlockBegin
  2
A$C77EC45A0
 70
     0
 10
0.0
 20
0.0
 30
0.0
  3
A$C77EC45A0
  1

  0
MTEXT
  5
58A
330
586
100
AcDbEntity
  8
outline
100
AcDbMText
 10
0.0002043548163755
 20
0.0073305223858213
 30
0.0
 40
0.003
 41
0.0057827344072715
 71
     1
 72
     5
  1
{\fTimes New Roman|b0|i0|c238|p18;0}
 73
     1
 44
1.0
1001
ACAD
1000
ACAD_MTEXT_DEFINED_HEIGHT_BEGIN
1070
    46
1040
0.0
1000
ACAD_MTEXT_DEFINED_HEIGHT_END
  0
MTEXT
  5
58B
330
586
100
AcDbEntity
  8
outline
100
AcDbMText
 10
0.0104846640945766
 20
0.0073305223858213
 30
0.0
 40
0.003
 41
0.0057827344072715
 71
     1
 72
     5
  1
{\fTimes New Roman|b0|i0|c238|p18;1}
 73
     1
 44
1.0
1001
ACAD
1000
ACAD_MTEXT_DEFINED_HEIGHT_BEGIN
1070
    46
1040
0.0
1000
ACAD_MTEXT_DEFINED_HEIGHT_END
  0
MTEXT
  5
58C
330
586
100
AcDbEntity
  8
outline
100
AcDbMText
 10
0.0202084088670063
 20
0.0073305223858213
 30
0.0
 40
0.003
 41
0.0057827344072715
 71
     1
 72
     5
  1
{\fTimes New Roman|b0|i0|c238|p18;2}
 73
     1
 44
1.0
1001
ACAD
1000
ACAD_MTEXT_DEFINED_HEIGHT_BEGIN
1070
    46
1040
0.0
1000
ACAD_MTEXT_DEFINED_HEIGHT_END
  0
MTEXT
  5
58D
330
586
100
AcDbEntity
  8
outline
100
AcDbMText
 10
0.0304027719551385
 20
0.0073305223858213
 30
0.0
 40
0.003
 41
0.0057827344072715
 71
     1
 72
     5
  1
{\fTimes New Roman|b0|i0|c238|p18;3}
 73
     1
 44
1.0
1001
ACAD
1000
ACAD_MTEXT_DEFINED_HEIGHT_BEGIN
1070
    46
1040
0.0
1000
ACAD_MTEXT_DEFINED_HEIGHT_END
  0
MTEXT
  5
58E
330
586
100
AcDbEntity
  8
outline
100
AcDbMText
 10
0.0403618949577549
 20
0.0073305223858213
 30
0.0
 40
0.003
 41
0.0057827344072715
 71
     1
 72
     5
  1
{\fTimes New Roman|b0|i0|c238|p18;4}
 73
     1
 44
1.0
1001
ACAD
1000
ACAD_MTEXT_DEFINED_HEIGHT_BEGIN
1070
    46
1040
0.0
1000
ACAD_MTEXT_DEFINED_HEIGHT_END
  0
MTEXT
  5
58F
330
586
100
AcDbEntity
  8
outline
100
AcDbMText
 10
0.0503208798157004
 20
0.0073305223858213
 30
0.0
 40
0.003
 41
0.0057827344072715
 71
     1
 72
     5
  1
{\fTimes New Roman|b0|i0|c238|p18;5}
 73
     1
 44
1.0
1001
ACAD
1000
ACAD_MTEXT_DEFINED_HEIGHT_BEGIN
1070
    46
1040
0.0
1000
ACAD_MTEXT_DEFINED_HEIGHT_END
  0
MTEXT
  5
590
330
586
100
AcDbEntity
  8
outline
100
AcDbMText
 10
0.0973785967896817
 20
0.0073305223858213
 30
0.0
 40
0.003
 41
0.0057827344072715
 71
     1
 72
     5
  1
{\fTimes New Roman|b0|i0|c238|p18;10m}
 73
     1
 44
1.0
1001
ACAD
1000
ACAD_MTEXT_DEFINED_HEIGHT_BEGIN
1070
    46
1040
0.0
1000
ACAD_MTEXT_DEFINED_HEIGHT_END
  0
LWPOLYLINE
  5
591
330
586
100
AcDbEntity
  8
thin line
100
AcDbPolyline
 90
        4
 70
     1
 43
0.0
 10
0.0008467496118953
 20
0.002748646488179
 10
0.0108467496119005
 20
0.002748646488179
 10
0.0108467496119005
 20
-0.0000000004678213
 10
0.0008467496118953
 20
-0.0000000004678213
  0
LWPOLYLINE
  5
592
330
586
100
AcDbEntity
  8
thin line
100
AcDbPolyline
 90
        4
 70
     1
 43
0.0
 10
0.0108467496119005
 20
-0.0000000004678213
 10
0.0208467496118914
 20
-0.0000000004678213
 10
0.0208467496118914
 20
0.002748646488179
 10
0.0108467496119005
 20
0.002748646488179
  0
LWPOLYLINE
  5
593
330
586
100
AcDbEntity
  8
thin line
100
AcDbPolyline
 90
        4
 70
     1
 43
0.0
 10
0.0208467496118914
 20
-0.0000000004678213
 10
0.0308467496118823
 20
-0.0000000004678213
 10
0.0308467496118823
 20
0.002748646488179
 10
0.0208467496118914
 20
0.002748646488179
  0
LWPOLYLINE
  5
594
330
586
100
AcDbEntity
  8
thin line
100
AcDbPolyline
 90
        4
 70
     1
 43
0.0
 10
0.0308467496118965
 20
-0.0000000004678213
 10
0.0408467496118874
 20
-0.0000000004678213
 10
0.0408467496118874
 20
0.002748646488179
 10
0.0308467496118965
 20
0.002748646488179
  0
LWPOLYLINE
  5
595
330
586
100
AcDbEntity
  8
thin line
100
AcDbPolyline
 90
        4
 70
     1
 43
0.0
 10
0.0408467496119016
 20
-0.0000000004678213
 10
0.0508467496118925
 20
-0.0000000004678213
 10
0.0508467496118925
 20
0.002748646488179
 10
0.0408467496119016
 20
0.002748646488179
  0
LWPOLYLINE
  5
596
330
586
100
AcDbEntity
  8
thin line
100
AcDbPolyline
 90
        4
 70
     1
 43
0.0
 10
0.0508467496118925
 20
0.002748646488179
 10
0.1008467496119039
 20
0.002748646488179
 10
0.1008467496119039
 20
-0.0000000004678213
 10
0.0508467496118925
 20
-0.0000000004678213
  0
LWPOLYLINE
  5
597
330
586
100
AcDbEntity
  8
thin line
100
AcDbPolyline
 90
        2
 70
     0
 43
0.0
 10
0.0508467496118925
 20
0.0013743230101824
 10
0.1008467496119039
 20
0.0013743230101824
  0
LWPOLYLINE
  5
598
330
586
100
AcDbEntity
  8
thin line
100
AcDbPolyline
 90
        2
 70
     0
 43
0.0
 10
0.0408467496119016
 20
0.0013743230101824
 10
0.0308467496118965
 20
0.0013743230101824
  0
LWPOLYLINE
  5
599
330
586
100
AcDbEntity
  8
thin line
100
AcDbPolyline
 90
        2
 70
     0
 43
0.0
 10
0.0208467496118914
 20
0.0013743230101824
 10
0.0108467496119005
 20
0.0013743230101824
  0
ENDBLK
  5
59A
330
586
100
AcDbEntity
  8
0
100
AcDbBlockEnd
  0
BLOCK
  5
59C
330
59B
100
AcDbEntity
  8
0
100
AcDbBlockBegin
  2
Logos block for Autocad drawings
 70
     0
 10
0.0
 20
0.0
 30
0.0
  3
Logos block for Autocad drawings
  1

  0
IMAGE
  5
59D
330
59B
100
AcDbEntity
  8
0
 92
      140
310
8C00000001000000840000000600000005000000CA48E673F3CDCF402BF622B16001C4400000000000000000CA48E673F3CDCF40F425B9AD931CC44000000000000000001F6EFFBB6411D040F425B9AD931CC44000000000000000001F6EFFBB6411D0402BF622B16001C4400000000000000000CA48E673F3CDCF402BF622
310
B16001C4400000000000000000
100
AcDbRasterImage
 90
        0
 10
16283.90197447351
 20
10242.75540577907
 30
0.0
 11
0.0211666666666667
 21
0.0
 31
0.0
 12
0.0
 22
0.0211666666666667
 32
0.0
 13
8016.0
 23
2570.0
340
5BF
 70
     7
280
     0
281
    50
282
    50
283
     0
360
59E
 71
     1
 91
        2
 14
-0.5
 24
-0.5
 14
8015.500000000001
 24
2569.5
  0
IMAGE
  5
59F
330
59B
100
AcDbEntity
  8
0
 92
      140
310
8C00000001000000840000000600000005000000BE06DA12C59DCF40C5532DE67801C4400000000000000000BE06DA12C59DCF4070FED790E335C440000000000000000069B184BDAFC8CF4070FED790E335C440000000000000000069B184BDAFC8CF40C5532DE67801C4400000000000000000BE06DA12C59DCF40C5532D
310
E67801C4400000000000000000
100
AcDbRasterImage
 90
        0
 10
16187.53963780717
 20
10242.94452444639
 30
0.0
 11
0.0208333333333333
 21
0.0
 31
0.0
 12
0.0
 22
0.0208333333333333
 32
0.0
 13
4120.0
 23
5032.0
340
5C0
 70
     7
280
     0
281
    50
282
    50
283
     0
360
5A0
 71
     1
 91
        2
 14
-0.5
 24
-0.5
 14
4119.5
 24
5031.5
  0
ENDBLK
  5
5A1
330
59B
100
AcDbEntity
  8
0
100
AcDbBlockEnd
  0
ENDSEC
  0
SECTION
  2
ENTITIES
  0
LWPOLYLINE
  5
131
330
1F
100
AcDbEntity
  8
outline
 62
   170
100
AcDbPolyline
 90
        2
 70
     0
 43
0.0
 10
19.43338585167703
 20
87.85191540208415
 10
23.38483383368612
 20
87.85199925091092
  0
LWPOLYLINE
  5
132
330
1F
100
AcDbEntity
  8
outline
 62
   170
100
AcDbPolyline
 90
        5
 70
     0
 43
0.0
 10
19.33335706388834
 20
87.9699132371943
 10
19.33335706388834
 20
87.9699132371943
 10
23.44841150170442
 20
87.9699132371943
 10
23.46127485048782
 20
87.9699132371943
 10
23.46127485048782
 20
87.83917313338315
  0
LWPOLYLINE
  5
134
330
1F
100
AcDbEntity
  8
outline
 62
   170
100
AcDbPolyline
 90
        3
 70
     0
 43
0.0
 10
31.99285736866159
 20
87.24942688392003
 10
31.99285736866159
 20
87.30005860637993
 10
31.99285736866159
 20
87.8209109553145
  0
LWPOLYLINE
  5
135
330
1F
100
AcDbEntity
  8
outline
100
AcDbPolyline
 90
        3
 70
     0
 43
0.0
 10
23.46127485048782
 20
87.92145465121393
 10
31.99206457758283
 20
87.92145465121393
 10
31.99206457758283
 20
87.92145465121393
  0
CIRCLE
  5
139
330
1F
100
AcDbEntity
  8
outline
100
AcDbCircle
 10
26.09909147130293
 20
87.58959098201193
 30
0.0
 40
0.2511579950810904
  0
LWPOLYLINE
  5
13A
102
{ACAD_REACTORS
330
30E
102
}
330
1F
100
AcDbEntity
  8
Thick outline
100
AcDbPolyline
 90
        4
 70
     1
 43
0.0
 10
25.84097568985271
 20
87.8426224692139
 10
25.84097568985271
 20
87.32611317291413
 10
26.3676478710554
 20
87.32611317291413
 10
26.3676478710554
 20
87.8426224692139
  0
CIRCLE
  5
13D
330
1F
100
AcDbEntity
  8
outline
100
AcDbCircle
 10
29.19450051231479
 20
87.57030997234323
 30
0.0
 40
0.2511579950810904
  0
LWPOLYLINE
  5
13E
102
{ACAD_REACTORS
330
30F
102
}
330
1F
100
AcDbEntity
  8
Thick outline
100
AcDbPolyline
 90
        4
 70
     1
 43
0.0
 10
28.93638473086367
 20
87.82334145954337
 10
28.93638473086367
 20
87.30683216324541
 10
29.46305691206635
 20
87.30683216324541
 10
29.46305691206635
 20
87.82334145954337
  0
LWPOLYLINE
  5
13F
330
1F
100
AcDbEntity
  8
outline
 62
   170
100
AcDbPolyline
 90
        3
 70
     0
 43
0.0
 10
23.38483383368612
 20
87.85199925091092
 10
23.38482844319606
 20
87.24941782820497
 10
23.46127485048782
 20
87.24942688392003
  0
LWPOLYLINE
  5
144
330
1F
100
AcDbEntity
  8
outline
 62
   170
100
AcDbPolyline
 90
        5
 70
     0
 43
0.0
 10
34.51029311751518
 20
88.00111407227177
 10
34.51029311751518
 20
89.52675903422187
 10
33.41501090629618
 20
89.52675903422187
 10
33.41501090629618
 20
87.85199925091092
 10
32.11929012110613
 20
87.85199925091092
  0
LWPOLYLINE
  5
145
330
1F
100
AcDbEntity
  8
outline
 62
   170
100
AcDbPolyline
 90
        2
 70
     0
 43
0.0
 10
34.51029311751518
 20
88.00111407227177
 10
34.51029311751518
 20
87.85549602459013
  0
LWPOLYLINE
  5
146
330
1F
100
AcDbEntity
  8
outline
 62
   170
100
AcDbPolyline
 90
        2
 70
     0
 43
0.0
 10
34.51029311751518
 20
87.85549602459013
 10
35.60958777769974
 20
87.85549602459013
  0
LWPOLYLINE
  5
147
330
1F
100
AcDbEntity
  8
outline
100
AcDbPolyline
 90
        3
 70
     0
 43
0.0
 10
35.74459316723187
 20
87.92145465121393
 10
41.83731378112679
 20
87.92145465121393
 10
41.83731378112679
 20
87.92145465121393
  0
CIRCLE
  5
14A
330
1F
100
AcDbEntity
  8
outline
100
AcDbCircle
 10
38.48464155609145
 20
87.58959098201193
 30
0.0
 40
0.2511579950810904
  0
LWPOLYLINE
  5
14B
102
{ACAD_REACTORS
330
310
102
}
330
1F
100
AcDbEntity
  8
Thick outline
100
AcDbPolyline
 90
        4
 70
     1
 43
0.0
 10
38.22652577464123
 20
87.8426224692139
 10
38.22652577464123
 20
87.32611317291413
 10
38.75319795584392
 20
87.32611317291413
 10
38.75319795584392
 20
87.8426224692139
  0
CIRCLE
  5
14E
330
1F
100
AcDbEntity
  8
outline
100
AcDbCircle
 10
41.57005720424058
 20
87.58959098201193
 30
0.0
 40
0.2511579950810904
  0
LWPOLYLINE
  5
14F
102
{ACAD_REACTORS
330
30D
102
}
330
1F
100
AcDbEntity
  8
Thick outline
100
AcDbPolyline
 90
        4
 70
     1
 43
0.0
 10
41.31194142278945
 20
87.8426224692139
 10
41.31194142278945
 20
87.32611317291413
 10
41.83861360399214
 20
87.32611317291413
 10
41.83861360399214
 20
87.8426224692139
  0
LWPOLYLINE
  5
150
330
1F
100
AcDbEntity
  8
outline
100
AcDbPolyline
 90
        2
 70
     0
 43
0.0
 10
41.83731378112679
 20
87.24942688392003
 10
35.74492333340686
 20
87.24942688392003
  0
LWPOLYLINE
  5
152
330
1F
100
AcDbEntity
  8
outline
100
AcDbPolyline
 90
        2
 70
     0
 43
0.0
 10
31.99338933172476
 20
87.24942688392003
 10
23.46127485048782
 20
87.24942688392003
  0
LWPOLYLINE
  5
154
330
1F
100
AcDbEntity
  8
outline
 62
   170
100
AcDbPolyline
 90
        2
 70
     0
 43
0.0
 10
41.83731378112679
 20
87.9966437846815
 10
42.57510827191618
 20
87.9966437846815
  0
LWPOLYLINE
  5
155
330
1F
100
AcDbEntity
  8
outline
 62
   170
100
AcDbPolyline
 90
        2
 70
     0
 43
0.0
 10
44.02738764706373
 20
87.9966437846815
 10
45.54809510204814
 20
87.9966437846815
  0
LWPOLYLINE
  5
156
330
1F
100
AcDbEntity
  8
outline
 62
   170
100
AcDbPolyline
 90
        2
 70
     0
 43
0.0
 10
47.68369726006994
 20
87.9966437846815
 10
49.24761481685891
 20
87.9966437846815
  0
LWPOLYLINE
  5
157
330
1F
100
AcDbEntity
  8
outline
 62
   170
100
AcDbPolyline
 90
        2
 70
     0
 43
0.0
 10
41.83731378112679
 20
87.92145465121393
 10
41.83731378112679
 20
87.9966437846815
  0
LWPOLYLINE
  5
158
330
1F
100
AcDbEntity
  8
outline
 62
   170
100
AcDbPolyline
 90
        2
 70
     0
 43
0.0
 10
41.98814356744242
 20
87.85199925091092
 10
42.57510827191618
 20
87.85199925091092
  0
LWPOLYLINE
  5
159
330
1F
100
AcDbEntity
  8
outline
 62
   170
100
AcDbPolyline
 90
        2
 70
     0
 43
0.0
 10
44.02738764706373
 20
87.85199925091092
 10
45.54821596923102
 20
87.85199925091092
  0
LWPOLYLINE
  5
15B
330
1F
100
AcDbEntity
  8
outline
 62
   170
100
AcDbPolyline
 90
        2
 70
     0
 43
0.0
 10
35.60958777769974
 20
87.85549602459013
 10
35.60958777769974
 20
87.2127954950738
  0
LWPOLYLINE
  5
15C
330
1F
100
AcDbEntity
  8
outline
 62
   170
100
AcDbPolyline
 90
        2
 70
     0
 43
0.0
 10
32.11929012110613
 20
87.85199925091092
 10
32.11929012110613
 20
87.2127954950738
  0
LWPOLYLINE
  5
161
330
1F
100
AcDbEntity
  8
outline
 62
   170
100
AcDbPolyline
 90
        2
 70
     0
 43
0.0
 10
44.02738764706373
 20
87.9966437846815
 10
44.02738764706373
 20
87.2127954950738
  0
LWPOLYLINE
  5
162
330
1F
100
AcDbEntity
  8
outline
 62
   170
100
AcDbPolyline
 90
        2
 70
     0
 43
0.0
 10
42.57510827191618
 20
87.9966437846815
 10
42.57510827191618
 20
87.2127954950738
  0
LWPOLYLINE
  5
163
330
1F
100
AcDbEntity
  8
outline
 62
   170
100
AcDbPolyline
 90
        3
 70
     0
 43
0.0
 10
19.33335706388834
 20
87.9699132371943
 10
19.33335706388834
 20
84.68220531208862
 10
19.43338585167703
 20
84.68220531208862
  0
LWPOLYLINE
  5
164
330
1F
100
AcDbEntity
  8
outline
 62
   170
100
AcDbPolyline
 90
        2
 70
     0
 43
0.0
 10
19.43338585167703
 20
87.85214452463424
 10
19.43338585167703
 20
84.68220531208862
  0
LWPOLYLINE
  5
16B
330
1F
100
AcDbEntity
  8
outline
 62
   170
100
AcDbPolyline
 90
        2
 70
     0
 43
0.0
 10
48.08162925869329
 20
82.61057684237949
 10
48.08162925869329
 20
79.38862339827029
  0
LWPOLYLINE
  5
16C
330
1F
100
AcDbEntity
  8
outline
 62
   170
100
AcDbPolyline
 90
        2
 70
     0
 43
0.0
 10
49.08170297777497
 20
82.61057684237949
 10
49.08170297777497
 20
78.42196988509477
  0
LWPOLYLINE
  5
16D
330
1F
100
AcDbEntity
  8
outline
 62
   170
100
AcDbPolyline
 90
        2
 70
     0
 43
0.0
 10
49.01054772692714
 20
82.66577329765278
 10
49.08170297777497
 20
82.61057684237949
  0
LWPOLYLINE
  5
16E
330
1F
100
AcDbEntity
  8
outline
 62
   170
100
AcDbPolyline
 90
        2
 70
     0
 43
0.0
 10
49.01054772692714
 20
83.41092509668852
 10
49.08170297777497
 20
83.46336166670971
  0
LWPOLYLINE
  5
171
330
1F
100
AcDbEntity
  8
outline
 62
   170
100
AcDbPolyline
 90
        3
 70
     0
 43
0.0
 10
49.08170297777497
 20
78.42196988509477
 10
49.08170297777497
 20
78.38859020123163
 10
47.86738465443386
 20
78.38859020123163
  0
LWPOLYLINE
  5
172
330
1F
100
AcDbEntity
  8
outline
 62
   170
100
AcDbPolyline
 90
        4
 70
     0
 43
0.0
 10
47.19778795114689
 20
79.38859020123072
 10
47.19778795114689
 20
79.38859020123072
 10
48.08162925869329
 20
79.38862339827029
 10
48.08162925869329
 20
79.38862339827029
  0
LWPOLYLINE
  5
175
330
1F
100
AcDbEntity
  8
outline
 62
   170
100
AcDbPolyline
 90
        3
 70
     0
 43
0.0
 10
47.86974930882616
 20
78.01642672230173
 10
47.86974930882616
 20
77.94156933051272
 10
47.26601890977372
 20
77.94156933051272
  0
LWPOLYLINE
  5
176
330
1F
100
AcDbEntity
  8
thin outline
100
AcDbPolyline
 90
        4
 70
     0
 43
0.0
 10
47.86985182149328
 20
78.01653071742293
 10
47.83569144513012
 20
77.98917460857683
 10
47.73791208313787
 20
77.96183056810696
 10
47.73791208313787
 20
77.94157196889409
  0
LWPOLYLINE
  5
177
330
1F
100
AcDbEntity
  8
outline
 62
   170
100
AcDbPolyline
 90
        3
 70
     0
 43
0.0
 10
47.19778795114689
 20
78.38488493864497
 10
47.19778795114689
 20
78.38488493864497
 10
47.19778795114689
 20
79.38859020123072
  0
LWPOLYLINE
  5
179
330
1F
100
AcDbEntity
  8
outline
100
AcDbPolyline
 90
        3
 70
     0
 43
0.0
 10
47.87460477142303
 20
76.52934551424732
 10
49.1462961338284
 20
76.52934551424732
 10
49.1462961338284
 20
78.22668762552075
  0
LWPOLYLINE
  5
17B
330
1F
100
AcDbEntity
  8
thin outline
100
AcDbPolyline
 90
        4
 70
     0
 43
0.0
 10
47.88011324885246
 20
76.77308030755648
 10
47.84595287248976
 20
76.80043641640259
 10
47.74817351049705
 20
76.82778045687246
 10
47.74817351049705
 20
76.84803905608532
  0
LWPOLYLINE
  5
17C
330
1F
100
AcDbEntity
  8
outline
 62
   170
100
AcDbPolyline
 90
        2
 70
     0
 43
0.0
 10
46.29536433938301
 20
75.3088710265747
 10
46.29536807338399
 20
75.94518584397519
  0
LWPOLYLINE
  5
17E
330
1F
100
AcDbEntity
  8
outline
 62
   170
100
AcDbPolyline
 90
        3
 70
     0
 43
0.0
 10
46.3918528246013
 20
75.31476331562044
 10
46.3918528246013
 20
75.32515770307236
 10
46.3918528246013
 20
75.3310952980828
  0
LWPOLYLINE
  5
180
330
1F
100
AcDbEntity
  8
outline
100
AcDbPolyline
 90
        9
 70
     0
 43
0.0
 10
46.48822773687061
 20
75.3310952980828
 10
46.48822773687061
 20
75.29164957171906
 10
45.51684277102459
 20
75.29164957171906
 10
45.51684277102459
 20
75.33109282053828
 10
45.56844102160494
 20
75.33109282053828
 10
45.56844102160494
 20
75.3088911129771
 10
45.64850719704327
 20
75.3088911129771
 10
45.65035505088554
 20
75.3088911129771
 10
45.65037393817783
 20
75.309374788475
  0
LWPOLYLINE
  5
181
330
1F
100
AcDbEntity
  8
outline
 62
   170
100
AcDbPolyline
 90
        4
 70
     0
 43
0.0
 10
46.3918528246013
 20
75.31476331562044
 10
46.3918528246013
 20
75.31321653012037
 10
46.3918528246013
 20
75.30902816992057
 10
46.29536433938301
 20
75.3088710265747
  0
LWPOLYLINE
  5
182
330
1F
100
AcDbEntity
  8
outline
100
AcDbPolyline
 90
        2
 70
     0
 43
0.0
 10
45.65035505088554
 20
75.3088911129771
 10
46.29536433938301
 20
75.3088710265747
  0
LWPOLYLINE
  5
184
330
1F
100
AcDbEntity
  8
outline
 62
   170
100
AcDbPolyline
 90
        2
 70
     0
 43
0.0
 10
39.41449963470723
 20
75.26815465121399
 10
45.51728676433003
 20
75.26815465121399
  0
LWPOLYLINE
  5
185
330
1F
100
AcDbEntity
  8
outline
 62
   170
100
AcDbPolyline
 90
        2
 70
     0
 43
0.0
 10
39.41449963470723
 20
75.26815465121399
 10
39.36858988527001
 20
75.3310952980828
  0
LWPOLYLINE
  5
186
330
1F
100
AcDbEntity
  8
outline
 62
   170
100
AcDbPolyline
 90
        2
 70
     0
 43
0.0
 10
45.51684277102459
 20
75.29164957171906
 10
45.51684277102459
 20
75.26815465121399
  0
LWPOLYLINE
  5
187
330
1F
100
AcDbEntity
  8
outline
 62
   170
100
AcDbPolyline
 90
        2
 70
     0
 43
0.0
 10
37.29378762334363
 20
75.26815465121399
 10
25.38626880529273
 20
75.26815465121399
  0
LWPOLYLINE
  5
188
330
1F
100
AcDbEntity
  8
outline
 62
   170
100
AcDbPolyline
 90
        2
 70
     0
 43
0.0
 10
37.33418226049298
 20
75.33593108142395
 10
26.218948747588
 20
75.33593108142395
  0
LWPOLYLINE
  5
18A
330
1F
100
AcDbEntity
  8
outline
 62
   170
100
AcDbPolyline
 90
        3
 70
     0
 43
0.0
 10
37.33418226049298
 20
75.33593108142395
 10
37.33418226049298
 20
75.31115859304191
 10
37.2815042013608
 20
75.26815465121399
  0
LWPOLYLINE
  5
18B
330
1F
100
AcDbEntity
  8
outline
 62
   170
100
AcDbPolyline
 90
        3
 70
     0
 43
0.0
 10
37.33418226049298
 20
75.31115859304191
 10
37.62600336232981
 20
75.31115859304191
 10
37.62600336232981
 20
75.5401574160578
  0
LWPOLYLINE
  5
18C
330
1F
100
AcDbEntity
  8
outline
 62
   170
100
AcDbPolyline
 90
        3
 70
     0
 43
0.0
 10
39.36858988527001
 20
75.3310952980828
 10
39.09797491371501
 20
75.3310952980828
 10
39.09797491371501
 20
75.53892640308823
  0
LWPOLYLINE
  5
18D
330
1F
100
AcDbEntity
  8
outline
 62
   170
100
AcDbPolyline
 90
        2
 70
     0
 43
0.0
 10
25.38626880529273
 20
75.26815465121399
 10
25.38140406954835
 20
75.33593108142395
  0
LWPOLYLINE
  5
18E
330
1F
100
AcDbEntity
  8
outline
 62
   170
100
AcDbPolyline
 90
        2
 70
     0
 43
0.0
 10
25.23999300149353
 20
75.26815465121399
 10
22.66601904038271
 20
75.26815465121399
  0
LWPOLYLINE
  5
18F
330
1F
100
AcDbEntity
  8
outline
 62
   170
100
AcDbPolyline
 90
        2
 70
     0
 43
0.0
 10
25.2650174741998
 20
75.33593108142395
 10
25.23999300149353
 20
75.26815465121399
  0
LWPOLYLINE
  5
190
330
1F
100
AcDbEntity
  8
thin outline
100
AcDbPolyline
 90
        3
 70
     0
 43
0.0
 10
37.53186297788261
 20
75.31115859304191
 10
37.59450761355447
 20
75.37123799699293
 10
37.59450761355447
 20
75.43564865029839
  0
LWPOLYLINE
  5
191
330
1F
100
AcDbEntity
  8
thin outline
100
AcDbPolyline
 90
        2
 70
     0
 43
0.0
 10
37.59450761355447
 20
75.43564865029839
 10
37.61562014752235
 20
75.43564865029839
  0
LWPOLYLINE
  5
192
330
1F
100
AcDbEntity
  8
thin outline
100
AcDbPolyline
 90
        3
 70
     0
 43
0.0
 10
37.53186297788261
 20
75.31115859304191
 10
37.62358063184684
 20
75.32760514848542
 10
37.59450761355447
 20
75.4353023280928
  0
LWPOLYLINE
  5
193
330
1F
100
AcDbEntity
  8
thin outline
100
AcDbPolyline
 90
        3
 70
     0
 43
0.0
 10
37.61562014752235
 20
75.43564865029839
 10
37.61562014752235
 20
75.53988288558503
 10
37.62600336232981
 20
75.53988288558503
  0
LWPOLYLINE
  5
194
330
1F
100
AcDbEntity
  8
thin outline
100
AcDbPolyline
 90
        2
 70
     0
 43
0.0
 10
37.5939699530918
 20
75.37085389252297
 10
37.62358063184684
 20
75.32760514848542
  0
LWPOLYLINE
  5
195
330
1F
100
AcDbEntity
  8
thin outline
100
AcDbPolyline
 90
        3
 70
     0
 43
0.0
 10
39.19211529816221
 20
75.3310952980828
 10
39.12947066249035
 20
75.39117470203564
 10
39.12947066249035
 20
75.45558535534019
  0
LWPOLYLINE
  5
196
330
1F
100
AcDbEntity
  8
thin outline
100
AcDbPolyline
 90
        2
 70
     0
 43
0.0
 10
39.12947066249035
 20
75.45558535534019
 10
39.10835812852202
 20
75.45558535534019
  0
LWPOLYLINE
  5
197
330
1F
100
AcDbEntity
  8
thin outline
100
AcDbPolyline
 90
        3
 70
     0
 43
0.0
 10
39.19211529816221
 20
75.3310952980828
 10
39.10039764419707
 20
75.34754185352631
 10
39.12947066249035
 20
75.45523903313551
  0
LWPOLYLINE
  5
198
330
1F
100
AcDbEntity
  8
thin outline
100
AcDbPolyline
 90
        3
 70
     0
 43
0.0
 10
39.10835812852202
 20
75.45558535534019
 10
39.10835812852202
 20
75.55981959062592
 10
39.09797491371501
 20
75.55981959062592
  0
LWPOLYLINE
  5
199
330
1F
100
AcDbEntity
  8
thin outline
100
AcDbPolyline
 90
        2
 70
     0
 43
0.0
 10
39.13000832295302
 20
75.39079059756568
 10
39.10039764419707
 20
75.34754185352631
  0
LWPOLYLINE
  5
19A
330
1F
100
AcDbEntity
  8
thin outline
100
AcDbPolyline
 90
        2
 70
     0
 43
0.0
 10
39.09797491371501
 20
75.55981959062592
 10
39.09797491371501
 20
75.3310952980828
  0
LWPOLYLINE
  5
19B
330
1F
100
AcDbEntity
  8
thin outline
100
AcDbPolyline
 90
        2
 70
     0
 43
0.0
 10
39.19211529816221
 20
75.3310952980828
 10
39.09797491371501
 20
75.3310952980828
  0
LWPOLYLINE
  5
19E
330
1F
100
AcDbEntity
  8
outline
100
AcDbPolyline
 90
        5
 70
     0
 43
0.0
 10
26.39501755427409
 20
75.33601366831589
 10
26.39501755427409
 20
75.29766202513474
 10
26.39501755427409
 20
75.29553146315084
 10
25.39080326052044
 20
75.29553146315084
 10
25.39080326052044
 20
75.33594243203243
  0
LWPOLYLINE
  5
1A1
330
1F
100
AcDbEntity
  8
outline
 62
   170
100
AcDbPolyline
 90
        2
 70
     0
 43
0.0
 10
39.09797491371501
 20
75.55981959062592
 10
39.09797491371501
 20
75.945189637162
  0
LWPOLYLINE
  5
1A2
330
1F
100
AcDbEntity
  8
outline
 62
   170
100
AcDbPolyline
 90
        2
 70
     0
 43
0.0
 10
37.62600336232981
 20
75.5401574160578
 10
37.62600336232981
 20
75.945189637162
  0
LWPOLYLINE
  5
1A3
330
1F
100
AcDbEntity
  8
outline
 62
   170
100
AcDbPolyline
 90
        2
 70
     0
 43
0.0
 10
22.66601904038271
 20
75.26815465121399
 10
22.66601904038271
 20
75.49825502282693
  0
LWPOLYLINE
  5
1AB
330
1F
100
AcDbEntity
  8
outline
 62
   170
100
AcDbPolyline
 90
        2
 70
     0
 43
0.0
 10
47.26601890977372
 20
78.38488493864497
 10
47.19778795114689
 20
78.38488493864497
  0
ARC
  5
1AF
330
1F
100
AcDbEntity
  8
Thick outline
100
AcDbCircle
 10
22.84673882684547
 20
78.42247271697761
 30
0.0
 40
3.212937303001704
100
AcDbArc
 50
189.6923409428936
 51
207.6155714721628
  0
ARC
  5
1B0
330
1F
100
AcDbEntity
  8
Thick outline
100
AcDbCircle
 10
22.18209044739069
 20
78.09299694992296
 30
0.0
 40
2.488804290559852
100
AcDbArc
 50
218.6407150819186
 51
240.9377296493879
  0
LWPOLYLINE
  5
1B1
330
1F
100
AcDbEntity
  8
outline
 62
   170
100
AcDbPolyline
 90
        2
 70
     0
 43
0.0
 10
22.66601904038271
 20
75.49825502282693
 10
22.66601904038271
 20
75.945189637162
  0
LWPOLYLINE
  5
1B9
330
1F
100
AcDbEntity
  8
outline
 62
   170
100
AcDbPolyline
 90
        5
 70
     0
 43
0.0
 10
19.43338585167703
 20
78.34898463282661
 10
19.43338585167703
 20
81.44347573399409
 10
19.3676029619055
 20
81.44347573399409
 10
19.36748975531236
 20
81.98924120258197
 10
19.36748975531236
 20
81.98924120258197
  0
LWPOLYLINE
  5
1BB
330
1F
100
AcDbEntity
  8
outline
 62
   170
100
AcDbPolyline
 90
        2
 70
     0
 43
0.0
 10
19.35282862961367
 20
79.65692153999134
 10
19.43338585167703
 20
79.68234644405947
  0
LWPOLYLINE
  5
1BC
330
1F
100
AcDbEntity
  8
outline
 62
   170
100
AcDbPolyline
 90
        2
 70
     0
 43
0.0
 10
19.35282862961367
 20
80.67001466946932
 10
19.43338585167703
 20
80.62298913509403
  0
LWPOLYLINE
  5
1BD
330
1F
100
AcDbEntity
  8
outline
100
AcDbPolyline
 90
        4
 70
     0
 43
0.0
 10
19.35350363469797
 20
80.75584855305441
 10
19.06509324313765
 20
80.75584855305441
 10
19.06509324313765
 20
79.89015163161093
 10
19.35282862961367
 20
79.43221064133649
  0
LWPOLYLINE
  5
1BE
330
1F
100
AcDbEntity
  8
outline
 62
   170
100
AcDbPolyline
 90
        3
 70
     0
 43
0.0
 10
19.3676029619055
 20
81.44347573399409
 10
19.35284184685679
 20
81.44347573399409
 10
19.35282862961367
 20
81.44154327826072
  0
LWPOLYLINE
  5
1C0
330
1F
100
AcDbEntity
  8
outline
 62
   170
100
AcDbPolyline
 90
        2
 70
     0
 43
0.0
 10
19.57018688043126
 20
78.34898463282661
 10
20.09387081130353
 20
78.34898463282661
  0
LWPOLYLINE
  5
1C2
330
1F
100
AcDbEntity
  8
outline
100
AcDbPolyline
 90
        2
 70
     0
 43
0.0
 10
42.57510827191618
 20
87.85199925091092
 10
44.02738764706373
 20
87.85199925091092
  0
LWPOLYLINE
  5
1C3
102
{ACAD_REACTORS
330
435
102
}
330
1F
100
AcDbEntity
  8
outline
100
AcDbPolyline
 90
        5
 70
     0
 43
0.0
 10
44.02738764706373
 20
87.69057049542608
 10
44.02738764706373
 20
87.85199925091092
 10
42.57510827191618
 20
87.85199925091092
 10
42.57510827191618
 20
87.69057049542608
 10
44.02738764706373
 20
87.69057049542608
  0
LWPOLYLINE
  5
1C6
330
1F
100
AcDbEntity
  8
outline
100
AcDbPolyline
 90
        4
 70
     0
 43
0.0
 10
45.5487679518078
 20
87.69057049542608
 10
47.68727851558014
 20
87.69057049542608
 10
47.68727851558014
 20
87.69057049542608
 10
47.68727851558014
 20
87.69057049542608
  0
LWPOLYLINE
  5
1C7
330
1F
100
AcDbEntity
  8
outline
 62
   170
100
AcDbPolyline
 90
        2
 70
     0
 43
0.0
 10
45.5487679518078
 20
87.74706880342547
 10
45.5487679518078
 20
87.2127954950738
  0
LWPOLYLINE
  5
1CE
330
1F
100
AcDbEntity
  8
Thick outline
100
AcDbPolyline
 90
        8
 70
     1
 43
0.0
 10
32.11929012110613
 20
86.85199925091001
 10
32.11929012110613
 20
87.85199925091092
 10
33.41501090629618
 20
87.85199925091092
 10
33.41501090629618
 20
89.52675903422187
 10
34.51029311751518
 20
89.52675903422187
 10
34.51029311751518
 20
87.85549602459013
 10
35.60958777769974
 20
87.85549602459013
 10
35.60958777769974
 20
86.85199925091001
  0
LWPOLYLINE
  5
1CF
102
{ACAD_REACTORS
330
302
102
}
330
1F
100
AcDbEntity
  8
Thick outline
100
AcDbPolyline
 90
        4
 70
     1
 43
0.0
 10
41.83861360399214
 20
87.85199925091092
 10
42.57510827191618
 20
87.85199925091092
 10
42.57510827191618
 20
86.85199925091001
 10
41.84000414794946
 20
86.85199925091001
  0
LWPOLYLINE
  5
1D0
330
1F
100
AcDbEntity
  8
Thick outline
100
AcDbPolyline
 90
        4
 70
     1
 43
0.0
 10
44.02738764706373
 20
87.85199925091092
 10
45.5487679518078
 20
87.85199925091092
 10
45.5487679518078
 20
86.85199925091001
 10
44.02738764706373
 20
86.85199925091001
  0
LWPOLYLINE
  5
1D1
330
1F
100
AcDbEntity
  8
Thick outline
100
AcDbPolyline
 90
        9
 70
     1
 43
0.0
 10
23.38483383368612
 20
86.85199925091001
 10
23.38482026992733
 20
87.85199925062171
 10
19.43338585167703
 20
87.85191540208415
 10
19.43338585167703
 20
84.68220531208862
 10
19.33335706388834
 20
84.68220531208862
 10
19.33335706388834
 20
84.0910134514479
 10
20.43338585167749
 20
84.0910134514479
 10
20.43175478750709
 20
86.84851235675614
 10
22.72745792638898
 20
86.85199925091001
  0
LWPOLYLINE
  5
1D3
330
1F
100
AcDbEntity
  8
Thick outline
100
AcDbPolyline
 90
        9
 70
     0
 43
0.0
 10
20.43338585167749
 20
79.3489846328257
 10
20.43338585167749
 20
81.96948565016009
 10
19.36749388440421
 20
81.96933497984081
 10
19.3676029619055
 20
81.44347573399409
 10
19.40049440679149
 20
81.44347573399409
 10
19.43338585167703
 20
81.44347573399409
 10
19.43338585167703
 20
78.34898463282661
 10
20.43338585167749
 20
78.34898463282661
 10
20.43338585167749
 20
78.34898463282661
  0
LWPOLYLINE
  5
1E2
102
{ACAD_REACTORS
330
350
102
}
330
1F
100
AcDbEntity
  8
Thick outline
100
AcDbPolyline
 90
        5
 70
     1
 43
0.0
 10
19.57018688043126
 20
78.34898463282661
 42
0.0466625714060002
 10
19.59736926921641
 20
77.86829990137085
 10
19.82359617371185
 20
77.90438577324493
 42
-0.0184912215403855
 10
19.80672396346335
 20
78.12636526125243
 10
19.80672396346335
 20
78.34898463282661
  0
LWPOLYLINE
  5
1E5
102
{ACAD_REACTORS
330
353
102
}
330
1F
100
AcDbEntity
  8
Thick outline
100
AcDbPolyline
 90
        5
 70
     1
 43
0.0
 10
19.91846917109979
 20
76.8892841460447
 10
20.11555119327841
 20
76.99556428507185
 42
0.0439432079850938
 10
20.35955825575411
 20
76.63197399380442
 10
20.17685626840239
 20
76.49192071991183
 42
-0.0283261503840717
 10
19.91846917109979
 20
76.8892841460447
  0
LWPOLYLINE
  5
1E9
102
{ACAD_REACTORS
330
352
102
}
330
1F
100
AcDbEntity
  8
Thick outline
100
AcDbPolyline
 90
        4
 70
     1
 43
0.0
 10
20.93578033884341
 20
75.85218732809881
 10
21.06278039158178
 20
76.03272135052975
 42
0.0416747712796549
 10
21.43922764768013
 20
75.85720240345199
 10
21.37107476492065
 20
75.67221265874923
 42
-0.0341316426879952
  0
LWPOLYLINE
  5
200
330
1F
100
AcDbEntity
  8
outline
100
AcDbPolyline
 90
        2
 70
     0
 43
0.0
 10
25.56162158334519
 20
75.33593108142395
 10
25.56162158334519
 20
75.945189637162
  0
LWPOLYLINE
  5
201
330
1F
100
AcDbEntity
  8
outline
100
AcDbPolyline
 90
        2
 70
     0
 43
0.0
 10
26.218948747588
 20
75.33593108142395
 10
26.218948747588
 20
75.945189637162
  0
LWPOLYLINE
  5
213
330
1F
100
AcDbEntity
  8
outline
 62
   170
100
AcDbPolyline
 90
        2
 70
     0
 43
0.0
 10
25.04804075483708
 20
75.33593108142395
 10
25.04804075483708
 20
75.945189637162
  0
LWPOLYLINE
  5
214
330
1F
100
AcDbEntity
  8
outline
 62
   170
100
AcDbPolyline
 90
        2
 70
     0
 43
0.0
 10
24.41340518862808
 20
75.33683888792438
 10
24.41340518862808
 20
75.945189637162
  0
LWPOLYLINE
  5
215
330
1F
100
AcDbEntity
  8
outline
 62
   170
100
AcDbPolyline
 90
        4
 70
     0
 43
0.0
 10
25.14825605354099
 20
75.33872041333324
 10
25.14825605354099
 20
75.30570347668981
 10
24.31926597822621
 20
75.30570347668981
 10
24.31926597822621
 20
75.3360607111681
  0
LWPOLYLINE
  5
221
102
{ACAD_REACTORS
330
351
102
}
330
1F
100
AcDbEntity
  8
Thick outline
100
AcDbPolyline
 90
        9
 70
     1
 43
0.0
 10
22.66601904038271
 20
75.69229934075884
 42
-0.0378537568356661
 10
22.22901958201555
 20
75.69117100434414
 10
22.2232940975623
 20
75.49857692342175
 42
0.0224892273920252
 10
22.66601904038271
 20
75.50151259486938
 10
22.66601904038271
 20
75.33593108142395
 10
24.41340518862808
 20
75.33593108142395
 10
24.41340518862808
 20
75.98593108142359
 10
22.66601904038271
 20
75.98593108142359
 10
22.66601904038271
 20
75.69229934075884
  0
LWPOLYLINE
  5
226
330
1F
100
AcDbEntity
  8
Thick outline
100
AcDbPolyline
 90
        4
 70
     1
 43
0.0
 10
25.04804075483708
 20
75.98593108142359
 10
25.56162158334519
 20
75.98593108142359
 10
25.56162158334519
 20
75.33593108142395
 10
25.04804075483708
 20
75.33593108142395
  0
LWPOLYLINE
  5
228
330
1F
100
AcDbEntity
  8
Thick outline
100
AcDbPolyline
 90
        7
 70
     1
 43
0.0
 10
26.218948747588
 20
75.98593108142359
 10
26.218948747588
 20
75.33593108142395
 10
37.33418226049298
 20
75.33593108142395
 10
37.33418226049298
 20
75.31115859304191
 10
37.62600336232981
 20
75.31115859304191
 10
37.62600336232981
 20
75.98593108142359
 10
26.218948747588
 20
75.98593108142359
  0
LWPOLYLINE
  5
230
330
1F
100
AcDbEntity
  8
Thick outline
100
AcDbPolyline
 90
        8
 70
     1
 43
0.0
 10
39.09797491371501
 20
75.98593108142359
 10
45.64896718252476
 20
75.98593108142359
 10
45.64896718252476
 20
75.98593108142359
 10
45.64850719704327
 20
75.3088911129771
 10
45.56844102160494
 20
75.3088911129771
 10
45.56844102160494
 20
75.33109282053828
 10
39.09797491371501
 20
75.3310952980828
 10
39.09797491371501
 20
75.98593108142359
  0
LWPOLYLINE
  5
23A
102
{ACAD_REACTORS
330
3A7
102
}
330
1F
100
AcDbEntity
  8
Thick outline
100
AcDbPolyline
 90
       11
 70
     1
 43
0.0
 10
46.29536433938301
 20
75.3088710265747
 10
46.29536807338399
 20
75.98593108142359
 10
47.23011324885237
 20
75.98593108142359
 10
47.22888428097394
 20
76.84703193161931
 10
47.88011324885246
 20
76.84803905608532
 10
47.88011324885246
 20
76.13061955609373
 10
47.10227171869473
 20
75.3310952980828
 10
46.3918528246013
 20
75.3310952980828
 10
46.3918528246013
 20
75.31996050934594
 10
46.39187062921109
 20
75.30902819891799
 10
46.29536433938301
 20
75.3088710265747
  0
LWPOLYLINE
  5
27D
330
1F
100
AcDbEntity
  8
Thick outline
100
AcDbPolyline
 90
       10
 70
     0
 43
0.0
 10
47.86738465443386
 20
78.38488493864497
 10
49.08170297777497
 20
78.38488493864497
 10
49.08170297777497
 20
82.61057684237949
 10
49.01054772692714
 20
82.66577329765278
 10
48.08177970930865
 20
82.66577329765278
 10
48.08162925869329
 20
82.61057684237949
 10
48.08175027512061
 20
79.38862340281684
 10
47.19778795114689
 20
79.38859020123072
 10
47.19778795114689
 20
78.38488493864497
 10
47.22905027638126
 20
78.38488493864497
  0
LWPOLYLINE
  5
282
102
{ACAD_REACTORS
330
2F3
102
}
330
1F
100
AcDbEntity
  8
Thick outline
100
AcDbPolyline
 90
        7
 70
     1
 43
0.0
 10
47.68397931155141
 20
86.85199925091001
 10
47.68789493476606
 20
87.84724810597799
 10
49.08158565323811
 20
87.84724815697245
 10
49.08170297777497
 20
83.46336166670971
 10
49.01054772692714
 20
83.41092509668852
 10
48.08164677104787
 20
83.41092509668852
 10
48.08164677104787
 20
86.85199925091001
  0
LWPOLYLINE
  5
288
330
1F
100
AcDbEntity
  8
Thick outline
100
AcDbPolyline
 90
        6
 70
     0
 43
0.0
 10
47.22905027638126
 20
78.38488493864497
 10
47.22905027638126
 20
78.38488493864497
 10
47.22905027638126
 20
77.94156933051272
 10
47.86974930882616
 20
77.94156933051272
 10
47.86738465443386
 20
78.38488493864497
 10
47.86738465443386
 20
78.38488493864497
  0
LWPOLYLINE
  5
291
330
1F
100
AcDbEntity
  8
thin outline
100
AcDbPolyline
 90
        5
 70
     0
 43
0.0
 10
19.33335706388834
 20
84.68220531208862
 10
19.33335706388834
 20
87.9699132371943
 10
23.46127485048782
 20
87.9699132371943
 10
23.46127735256096
 20
87.85200087302383
 10
23.46127735256096
 20
87.85200087302383
  0
LWPOLYLINE
  5
293
330
1F
100
AcDbEntity
  8
thin outline
100
AcDbPolyline
 90
       10
 70
     0
 43
0.0
 10
31.99285736866159
 20
87.85199925091092
 10
31.99285736866159
 20
87.85199925091092
 10
31.99285736866159
 20
87.98165097709716
 10
33.27400691023195
 20
87.98165097709716
 10
33.27400691023195
 20
89.6603723231683
 10
34.65652370054522
 20
89.6603723231683
 10
34.65652370054522
 20
87.9966437846815
 10
35.74492333340686
 20
87.9966437846815
 10
35.74492333340686
 20
87.85747841074499
 10
35.74492333340686
 20
87.85747841074499
  0
LWPOLYLINE
  5
296
330
1F
100
AcDbEntity
  8
thin outline
100
AcDbPolyline
 90
        6
 70
     0
 43
0.0
 10
41.83861360399214
 20
87.85199925091092
 10
41.83731378112679
 20
87.85199925091092
 10
41.83731378112679
 20
87.9966437846815
 10
42.57510827191618
 20
87.9966437846815
 10
42.57510827191618
 20
87.85199925091092
 10
42.57510827191618
 20
87.85199925091092
  0
LWPOLYLINE
  5
297
330
1F
100
AcDbEntity
  8
thin outline
100
AcDbPolyline
 90
        5
 70
     0
 43
0.0
 10
44.02738764706373
 20
87.85199925091092
 10
44.02738764706373
 20
87.9966437846815
 10
45.54817711821761
 20
87.9966437846815
 10
45.54817711821761
 20
87.85199925091092
 10
45.54817711821761
 20
87.85199925091092
  0
LWPOLYLINE
  5
299
330
1F
100
AcDbEntity
  8
thin outline
100
AcDbPolyline
 90
        7
 70
     0
 43
0.0
 10
47.68789493476606
 20
87.84724810597799
 10
47.68789493476606
 20
87.84724810597799
 10
47.6878950183177
 20
87.9966437846815
 10
49.24761481685891
 20
87.9966437846815
 10
49.24761481685891
 20
83.46336166670971
 10
49.08170297789411
 20
83.46335722275398
 10
49.08170297777497
 20
83.46336166670971
  0
LWPOLYLINE
  5
29D
330
1F
100
AcDbEntity
  8
thin outline
100
AcDbPolyline
 90
        6
 70
     0
 43
0.0
 10
49.08170297777497
 20
82.61057684237949
 10
49.08170297777497
 20
82.61057684237949
 10
49.24761515353612
 20
82.61057682963565
 10
49.24761481685891
 20
78.2273679111986
 10
47.86826409840523
 20
78.22001042665397
 10
47.86826409840523
 20
78.22001042665397
  0
LWPOLYLINE
  5
2AE
330
1F
100
AcDbEntity
  8
thin outline
100
AcDbPolyline
 90
        3
 70
     0
 43
0.0
 10
23.46127485048782
 20
87.83917313338315
 10
23.46127485048782
 20
87.24942688392003
 10
23.38482844319606
 20
87.24941782820497
  0
LWPOLYLINE
  5
2B0
330
1F
100
AcDbEntity
  8
thin outline
100
AcDbPolyline
 90
        3
 70
     0
 43
0.0
 10
31.99263050601621
 20
87.82569743022577
 10
31.99285736866159
 20
87.24942688392003
 10
32.11929012110613
 20
87.24967890244716
  0
LWPOLYLINE
  5
2BD
330
1F
100
AcDbEntity
  8
thin outline
100
AcDbPolyline
 90
        3
 70
     0
 43
0.0
 10
35.74492333340686
 20
87.85747841074499
 10
35.74492333340686
 20
87.24942688392003
 10
35.60958777769974
 20
87.24939214290044
  0
LWPOLYLINE
  5
2C4
330
1F
100
AcDbEntity
  8
thin outline
100
AcDbPolyline
 90
        5
 70
     0
 43
0.0
 10
39.36866989601276
 20
75.33098560617782
 10
39.36866989601276
 20
75.33098560617782
 10
39.41449963470723
 20
75.26815465121399
 10
45.51728676433003
 20
75.26815465121399
 10
45.51684277102459
 20
75.33109282053828
  0
LWPOLYLINE
  5
2CC
330
1F
100
AcDbEntity
  8
thin outline
100
AcDbPolyline
 90
       10
 70
     0
 43
0.0
 10
37.33418226049298
 20
75.33593108142395
 10
37.33418226049298
 20
75.31115859304191
 10
37.2815042013608
 20
75.26815465121399
 10
25.38626880529273
 20
75.26815465121399
 10
25.38140406954835
 20
75.33593108142395
 10
25.38140406954835
 20
75.33593108142395
 10
25.38140406954835
 20
75.33593108142395
 10
25.38140406954835
 20
75.33593108142395
 10
25.38140406954835
 20
75.33593108142395
 10
25.38140406954835
 20
75.33593108142395
  0
LWPOLYLINE
  5
2D2
330
1F
100
AcDbEntity
  8
thin outline
100
AcDbPolyline
 90
       10
 70
     0
 43
0.0
 10
25.2650174741998
 20
75.33593108142395
 10
25.2650174741998
 20
75.33593108142395
 10
25.2650174741998
 20
75.33593108142395
 10
25.2650174741998
 20
75.33593108142395
 10
25.2650174741998
 20
75.33593108142395
 10
25.2650174741998
 20
75.33593108142395
 10
25.23999300149353
 20
75.26815465121399
 10
22.66601904038271
 20
75.26815465121399
 10
22.66598382900793
 20
75.33593106313038
 10
22.66598382900793
 20
75.33593106313038
  0
LWPOLYLINE
  5
2D5
330
1F
100
AcDbEntity
  8
thin outline
100
AcDbPolyline
 90
       14
 70
     0
 43
0.0
 10
22.66419955592301
 20
75.41858835911807
 10
22.66389644642004
 20
75.40531662011108
 42
-0.4602591196587619
 10
19.48036904852961
 20
78.3472080732854
 10
19.48036904852961
 20
78.3472080732854
 42
0.0463933481467332
 10
19.48036904852961
 20
78.3472080732854
 10
19.48036904852961
 20
78.3472080732854
 42
32.17504072788079
 10
19.48036904852961
 20
78.3472080732854
 10
19.48036904852961
 20
78.3472080732854
 42
0.0285049656918814
 10
19.48036904852961
 20
78.3472080732854
 10
19.48036904852961
 20
78.3472080732854
 42
0.0974579996466234
 10
19.48036904852961
 20
78.3472080732854
 10
19.48036904852961
 20
78.3472080732854
 42
0.0353191976136182
 10
19.48036904852961
 20
78.3472080732854
 42
0.1004322384055565
 10
19.48036904852961
 20
78.3472080732854
  0
LWPOLYLINE
  5
2DD
102
{ACAD_REACTORS
330
319
102
}
330
1F
100
AcDbEntity
  8
thin outline
100
AcDbPolyline
 90
        4
 70
     1
 43
0.0
 10
19.43338585167703
 20
78.42738106539582
 10
19.35282862961367
 20
78.4681566862846
 10
19.35282862961367
 20
79.65692153999134
 10
19.43338585167703
 20
79.68234644405947
  0
LWPOLYLINE
  5
2DE
102
{ACAD_REACTORS
330
31A
102
}
330
1F
100
AcDbEntity
  8
thin outline
100
AcDbPolyline
 90
        5
 70
     1
 43
0.0
 10
19.43338585167703
 20
80.62298913509403
 10
19.35282862961367
 20
80.67001466946932
 10
19.35282862961367
 20
81.44154327826072
 10
19.43338585167703
 20
81.44347573399409
 10
19.43338585167703
 20
80.62298913509403
  0
LWPOLYLINE
  5
2EA
330
1F
100
AcDbEntity
  8
thin outline
100
AcDbPolyline
 90
        2
 70
     0
 43
0.0
 10
33.41501090629618
 20
87.85199925091092
 10
34.51029311751518
 20
87.85199925091092
  0
HATCH
  5
2F1
330
1F
100
AcDbEntity
  8
16th century
100
AcDbHatch
 10
0.0
 20
0.0
 30
0.0
210
0.0
220
0.0
230
1.0
  2
SOLID
 70
     1
 71
     0
 91
        1
 92
        1
 93
        4
 72
     1
 10
32.11929012110613
 20
87.85199925091092
 11
35.60958777769965
 21
87.85199925091092
 72
     1
 10
35.60958777769974
 20
87.85199925091092
 11
35.60958777769974
 21
86.85199925091049
 72
     1
 10
35.60958777769974
 20
86.85199925091001
 11
32.11929012110623
 21
86.85199925091001
 72
     1
 10
32.11929012110613
 20
86.85199925091001
 11
32.11929012110613
 21
87.85199925091044
 97
        0
 75
     0
 76
     1
 98
        1
 10
-1.310221215336696
 20
0.6400799863158682
450
        0
451
        0
460
0.0
461
0.0
452
        1
462
1.0
453
        2
463
0.0
 63
     5
421
      255
463
1.0
 63
     7
421
 16777215
470
LINEAR
1001
ACAD
1010
0.0
1020
0.0
1030
0.0
  0
HATCH
  5
2F3
330
1F
100
AcDbEntity
  8
16th century
100
AcDbHatch
 10
0.0
 20
0.0
 30
0.0
210
0.0
220
0.0
230
1.0
  2
SOLID
 70
     1
 71
     1
 91
        1
 92
        1
 93
        7
 72
     1
 10
47.68397931155141
 20
86.85199925091001
 11
47.68789493476606
 21
87.84724810597799
 72
     1
 10
47.68789493476606
 20
87.84724810597799
 11
49.08158565323811
 21
87.84724815697245
 72
     1
 10
49.08158565323811
 20
87.84724815697245
 11
49.08170297777497
 21
83.46336166670971
 72
     1
 10
49.08170297777497
 20
83.46336166670971
 11
49.01054772692714
 21
83.41092509668852
 72
     1
 10
49.01054772692714
 20
83.41092509668852
 11
48.08164677104787
 21
83.41092509668852
 72
     1
 10
48.08164677104787
 20
83.41092509668852
 11
48.08164677104787
 21
86.85199925091001
 72
     1
 10
48.08164677104787
 20
86.85199925091001
 11
47.68397931155141
 21
86.85199925091001
 97
        1
330
282
 75
     0
 76
     1
 98
        1
 10
-1.310221215336696
 20
0.6400799863158682
450
        0
451
        0
460
0.0
461
0.0
452
        1
462
1.0
453
        2
463
0.0
 63
     5
421
      255
463
1.0
 63
     7
421
 16777215
470
LINEAR
1001
ACAD
1010
0.0
1020
0.0
1030
0.0
  0
HATCH
  5
2F4
330
1F
100
AcDbEntity
  8
16th century
100
AcDbHatch
 10
0.0
 20
0.0
 30
0.0
210
0.0
220
0.0
230
1.0
  2
SOLID
 70
     1
 71
     0
 91
        1
 92
        1
 93
        8
 72
     1
 10
48.08162925869329
 20
82.61057684237949
 11
48.08175027512039
 21
79.38862340281609
 72
     1
 10
48.08175027512061
 20
79.38862340281684
 11
47.19778795114697
 21
79.38859020123101
 72
     1
 10
47.19778795114689
 20
79.38859020123072
 11
47.19778795114689
 21
78.38488493864466
 72
     1
 10
47.19778795114689
 20
78.38488493864497
 11
49.08170297777483
 21
78.38488493864497
 72
     1
 10
49.08170297777497
 20
78.38488493864497
 11
49.08170297777497
 21
82.61057684238027
 72
     1
 10
49.08170297777497
 20
82.61057684237949
 11
49.01054772692726
 21
82.66577329765363
 72
     1
 10
49.01054772692714
 20
82.66577329765278
 11
48.08177970930861
 21
82.66577329765278
 72
     1
 10
48.08177970930865
 20
82.66577329765278
 11
48.08162925869348
 21
82.61057684237863
 97
        0
 75
     0
 76
     1
 98
        1
 10
-1.310221215336696
 20
0.6400799863158682
450
        0
451
        0
460
0.0
461
0.0
452
        1
462
1.0
453
        2
463
0.0
 63
     5
421
      255
463
1.0
 63
     7
421
 16777215
470
LINEAR
1001
ACAD
1010
0.0
1020
0.0
1030
0.0
  0
LWPOLYLINE
  5
2F8
330
1F
100
AcDbEntity
  8
thin outline
100
AcDbPolyline
 90
        2
 70
     0
 43
0.0
 10
44.51738764706351
 20
86.85199925091001
 10
44.51738764706351
 20
87.85199925091092
  0
HATCH
  5
2FB
330
1F
100
AcDbEntity
  8
16th century
100
AcDbHatch
 10
0.0
 20
0.0
 30
0.0
210
0.0
220
0.0
230
1.0
  2
SOLID
 70
     1
 71
     0
 91
        1
 92
        1
 93
        4
 72
     1
 10
44.51738764706351
 20
87.85199925091092
 11
45.54876795180797
 21
87.85199925091092
 72
     1
 10
45.5487679518078
 20
87.85199925091092
 11
45.5487679518078
 21
86.85199925091049
 72
     1
 10
45.5487679518078
 20
86.85199925091001
 11
44.51738764706334
 21
86.85199925091001
 72
     1
 10
44.51738764706351
 20
86.85199925091001
 11
44.51738764706351
 21
87.85199925091044
 97
        0
 75
     0
 76
     1
 98
        1
 10
-1.310221215336696
 20
0.6400799863158682
450
        0
451
        0
460
0.0
461
0.0
452
        1
462
1.0
453
        2
463
0.0
 63
     5
421
      255
463
1.0
 63
     7
421
 16777215
470
LINEAR
1001
ACAD
1010
0.0
1020
0.0
1030
0.0
  0
HATCH
  5
2FF
330
1F
100
AcDbEntity
  8
1780s
100
AcDbHatch
 10
0.0
 20
0.0
 30
0.0
210
0.0
220
0.0
230
1.0
  2
SOLID
 70
     1
 71
     0
 91
        1
 92
        1
 93
        4
 72
     1
 10
42.57510827191618
 20
87.85199925091092
 11
41.83731378112683
 21
87.85199925091092
 72
     1
 10
41.83731378112679
 20
87.85199925091092
 11
41.83731378112679
 21
87.99664378468149
 72
     1
 10
41.83731378112679
 20
87.9966437846815
 11
42.57510827191614
 21
87.9966437846815
 72
     1
 10
42.57510827191618
 20
87.9966437846815
 11
42.57510827191618
 21
87.85199925091093
 97
        0
 75
     0
 76
     1
 98
        1
 10
-1.310221215336696
 20
0.6400799863158682
450
        0
451
        0
460
0.0
461
0.0
452
        1
462
1.0
453
        2
463
0.0
 63
     5
421
      255
463
1.0
 63
     7
421
 16777215
470
LINEAR
1001
ACAD
1010
0.0
1020
0.0
1030
0.0
  0
HATCH
  5
300
330
1F
100
AcDbEntity
  8
1780s
100
AcDbHatch
 10
0.0
 20
0.0
 30
0.0
210
0.0
220
0.0
230
1.0
  2
SOLID
 70
     1
 71
     0
 91
        1
 92
       49
 93
        1
 72
     1
 10
45.33760886240378
 20
87.35656379837292
 11
46.85831631738915
 21
87.35656379837292
 97
        0
 75
     0
 76
     1
 98
        1
 10
0.0
 20
0.0
450
        0
451
        0
460
0.0
461
0.0
452
        1
462
1.0
453
        2
463
0.0
 63
     5
421
      255
463
1.0
 63
     7
421
 16777215
470
LINEAR
1001
ACAD
1010
0.0
1020
0.0
1030
0.0
  0
HATCH
  5
301
330
1F
100
AcDbEntity
  8
1780s
100
AcDbHatch
 10
0.0
 20
0.0
 30
0.0
210
0.0
220
0.0
230
1.0
  2
SOLID
 70
     1
 71
     0
 91
        1
 92
        1
 93
        4
 72
     1
 10
44.02738764706373
 20
87.9966437846815
 11
45.54817711821873
 21
87.9966437846815
 72
     1
 10
45.54817711821761
 20
87.9966437846815
 11
45.54817711821761
 21
87.85199925091093
 72
     1
 10
45.54817711821761
 20
87.85199925091092
 11
44.02738764706261
 21
87.85199925091092
 72
     1
 10
44.02738764706373
 20
87.85199925091092
 11
44.02738764706373
 21
87.99664378468149
 97
        0
 75
     0
 76
     1
 98
        1
 10
-1.310221215336696
 20
0.6400799863158682
450
        0
451
        0
460
0.0
461
0.0
452
        1
462
1.0
453
        2
463
0.0
 63
     5
421
      255
463
1.0
 63
     7
421
 16777215
470
LINEAR
1001
ACAD
1010
0.0
1020
0.0
1030
0.0
  0
HATCH
  5
302
330
1F
100
AcDbEntity
  8
1780s
100
AcDbHatch
 10
0.0
 20
0.0
 30
0.0
210
0.0
220
0.0
230
1.0
  2
SOLID
 70
     1
 71
     1
 91
        1
 92
        1
 93
        4
 72
     1
 10
41.83861360399214
 20
87.85199925091092
 11
42.57510827191618
 21
87.85199925091092
 72
     1
 10
42.57510827191618
 20
87.85199925091092
 11
42.57510827191618
 21
86.85199925091001
 72
     1
 10
42.57510827191618
 20
86.85199925091001
 11
41.84000414794946
 21
86.85199925091001
 72
     1
 10
41.84000414794946
 20
86.85199925091001
 11
41.83861360399214
 21
87.85199925091092
 97
        1
330
1CF
 75
     0
 76
     1
 98
        1
 10
-1.310221215336696
 20
0.6400799863158682
450
        0
451
        0
460
0.0
461
0.0
452
        1
462
1.0
453
        2
463
0.0
 63
     5
421
      255
463
1.0
 63
     7
421
 16777215
470
LINEAR
1001
ACAD
1010
0.0
1020
0.0
1030
0.0
  0
HATCH
  5
304
330
1F
100
AcDbEntity
  8
1780s
100
AcDbHatch
 10
0.0
 20
0.0
 30
0.0
210
0.0
220
0.0
230
1.0
  2
SOLID
 70
     1
 71
     0
 91
        1
 92
        1
 93
        4
 72
     1
 10
44.02738764706373
 20
87.85199925091092
 11
44.51738764706361
 21
87.85199925091092
 72
     1
 10
44.51738764706351
 20
87.85199925091092
 11
44.51738764706351
 21
86.85199925091049
 72
     1
 10
44.51738764706351
 20
86.85199925091001
 11
44.02738764706363
 21
86.85199925091001
 72
     1
 10
44.02738764706373
 20
86.85199925091001
 11
44.02738764706373
 21
87.85199925091044
 97
        0
 75
     0
 76
     1
 98
        1
 10
-1.310221215336696
 20
0.6400799863158682
450
        0
451
        0
460
0.0
461
0.0
452
        1
462
1.0
453
        2
463
0.0
 63
     5
421
      255
463
1.0
 63
     7
421
 16777215
470
LINEAR
1001
ACAD
1010
0.0
1020
0.0
1030
0.0
  0
HATCH
  5
306
330
1F
100
AcDbEntity
  8
1780s
100
AcDbHatch
 10
0.0
 20
0.0
 30
0.0
210
0.0
220
0.0
230
1.0
  2
SOLID
 70
     1
 71
     0
 91
        1
 92
        1
 93
        6
 72
     1
 10
47.68789493476606
 20
87.84724810597799
 11
47.68789501831736
 21
87.99664378468099
 72
     1
 10
47.6878950183177
 20
87.9966437846815
 11
49.24761481685901
 21
87.9966437846815
 72
     1
 10
49.24761481685891
 20
87.9966437846815
 11
49.24761481685891
 21
83.46336166671061
 72
     1
 10
49.24761481685891
 20
83.46336166670971
 11
49.08170297789427
 21
83.46335722275375
 72
     1
 10
49.08170297789411
 20
83.46335722275398
 11
49.08158565323887
 21
87.84724815697208
 72
     1
 10
49.08158565323811
 20
87.84724815697245
 11
47.68789493476538
 21
87.84724810597822
 97
        0
 75
     0
 76
     1
 98
        1
 10
-1.310221215336696
 20
0.6400799863158682
450
        0
451
        0
460
0.0
461
0.0
452
        1
462
1.0
453
        2
463
0.0
 63
     5
421
      255
463
1.0
 63
     7
421
 16777215
470
LINEAR
1001
ACAD
1010
0.0
1020
0.0
1030
0.0
  0
HATCH
  5
307
330
1F
100
AcDbEntity
  8
1780s
100
AcDbHatch
 10
0.0
 20
0.0
 30
0.0
210
0.0
220
0.0
230
1.0
  2
SOLID
 70
     1
 71
     0
 91
        1
 92
        1
 93
        7
 72
     1
 10
49.08170297777497
 20
82.61057684237949
 11
49.24761515353615
 21
82.61057682963519
 72
     1
 10
49.24761515353612
 20
82.61057682963565
 11
49.24761481685894
 21
78.22736791119829
 72
     1
 10
49.24761481685891
 20
78.2273679111986
 11
47.86826409840527
 21
78.22001042665414
 72
     1
 10
47.86826409840523
 20
78.22001042665397
 11
47.86738465443372
 21
78.38488493864478
 72
     1
 10
47.86738465443386
 20
78.38488493864497
 11
49.081702977775
 21
78.38488493864497
 72
     1
 10
49.08170297777497
 20
78.38488493864497
 11
49.08170297777497
 21
82.22360250756699
 72
     1
 10
49.08170297777497
 20
82.22360250756628
 11
49.08170297777497
 21
82.61057684237957
 97
        0
 75
     0
 76
     1
 98
        1
 10
-1.310221215336696
 20
0.6400799863158682
450
        0
451
        0
460
0.0
461
0.0
452
        1
462
1.0
453
        2
463
0.0
 63
     5
421
      255
463
1.0
 63
     7
421
 16777215
470
LINEAR
1001
ACAD
1010
0.0
1020
0.0
1030
0.0
  0
HATCH
  5
30D
330
1F
100
AcDbEntity
  8
16th century
100
AcDbHatch
 10
0.0
 20
0.0
 30
0.0
210
0.0
220
0.0
230
1.0
  2
SOLID
 70
     1
 71
     1
 91
        1
 92
        1
 93
        4
 72
     1
 10
41.31194142278945
 20
87.8426224692139
 11
41.31194142278945
 21
87.32611317291413
 72
     1
 10
41.31194142278945
 20
87.32611317291413
 11
41.83861360399214
 21
87.32611317291413
 72
     1
 10
41.83861360399214
 20
87.32611317291413
 11
41.83861360399214
 21
87.8426224692139
 72
     1
 10
41.83861360399214
 20
87.8426224692139
 11
41.31194142278945
 21
87.8426224692139
 97
        1
330
14F
 75
     0
 76
     1
 98
        1
 10
-1.310221215336696
 20
0.6400799863158682
450
        0
451
        0
460
0.0
461
0.0
452
        1
462
1.0
453
        2
463
0.0
 63
     5
421
      255
463
1.0
 63
     7
421
 16777215
470
LINEAR
1001
ACAD
1010
0.0
1020
0.0
1030
0.0
  0
HATCH
  5
30E
330
1F
100
AcDbEntity
  8
16th century
100
AcDbHatch
 10
0.0
 20
0.0
 30
0.0
210
0.0
220
0.0
230
1.0
  2
SOLID
 70
     1
 71
     1
 91
        1
 92
        1
 93
        4
 72
     1
 10
25.84097568985271
 20
87.8426224692139
 11
25.84097568985271
 21
87.32611317291413
 72
     1
 10
25.84097568985271
 20
87.32611317291413
 11
26.3676478710554
 21
87.32611317291413
 72
     1
 10
26.3676478710554
 20
87.32611317291413
 11
26.3676478710554
 21
87.8426224692139
 72
     1
 10
26.3676478710554
 20
87.8426224692139
 11
25.84097568985271
 21
87.8426224692139
 97
        1
330
13A
 75
     0
 76
     1
 98
        1
 10
-1.310221215336696
 20
0.6400799863158682
450
        0
451
        0
460
0.0
461
0.0
452
        1
462
1.0
453
        2
463
0.0
 63
     5
421
      255
463
1.0
 63
     7
421
 16777215
470
LINEAR
1001
ACAD
1010
0.0
1020
0.0
1030
0.0
  0
HATCH
  5
30F
330
1F
100
AcDbEntity
  8
16th century
100
AcDbHatch
 10
0.0
 20
0.0
 30
0.0
210
0.0
220
0.0
230
1.0
  2
SOLID
 70
     1
 71
     1
 91
        1
 92
        1
 93
        4
 72
     1
 10
28.93638473086367
 20
87.82334145954337
 11
28.93638473086367
 21
87.30683216324541
 72
     1
 10
28.93638473086367
 20
87.30683216324541
 11
29.46305691206635
 21
87.30683216324541
 72
     1
 10
29.46305691206635
 20
87.30683216324541
 11
29.46305691206635
 21
87.82334145954337
 72
     1
 10
29.46305691206635
 20
87.82334145954337
 11
28.93638473086367
 21
87.82334145954337
 97
        1
330
13E
 75
     0
 76
     1
 98
        1
 10
-1.310221215336696
 20
0.6400799863158682
450
        0
451
        0
460
0.0
461
0.0
452
        1
462
1.0
453
        2
463
0.0
 63
     5
421
      255
463
1.0
 63
     7
421
 16777215
470
LINEAR
1001
ACAD
1010
0.0
1020
0.0
1030
0.0
  0
HATCH
  5
310
330
1F
100
AcDbEntity
  8
16th century
100
AcDbHatch
 10
0.0
 20
0.0
 30
0.0
210
0.0
220
0.0
230
1.0
  2
SOLID
 70
     1
 71
     1
 91
        1
 92
        1
 93
        4
 72
     1
 10
38.22652577464123
 20
87.8426224692139
 11
38.22652577464123
 21
87.32611317291413
 72
     1
 10
38.22652577464123
 20
87.32611317291413
 11
38.75319795584392
 21
87.32611317291413
 72
     1
 10
38.75319795584392
 20
87.32611317291413
 11
38.75319795584392
 21
87.8426224692139
 72
     1
 10
38.75319795584392
 20
87.8426224692139
 11
38.22652577464123
 21
87.8426224692139
 97
        1
330
14B
 75
     0
 76
     1
 98
        1
 10
-1.310221215336696
 20
0.6400799863158682
450
        0
451
        0
460
0.0
461
0.0
452
        1
462
1.0
453
        2
463
0.0
 63
     5
421
      255
463
1.0
 63
     7
421
 16777215
470
LINEAR
1001
ACAD
1010
0.0
1020
0.0
1030
0.0
  0
HATCH
  5
318
330
1F
100
AcDbEntity
  8
1780s
100
AcDbHatch
 10
0.0
 20
0.0
 30
0.0
210
0.0
220
0.0
230
1.0
  2
SOLID
 70
     1
 71
     0
 91
        1
 92
        1
 93
        8
 72
     1
 10
19.43338585167703
 20
84.68220531208862
 11
19.33335706388841
 21
84.68220531208862
 72
     1
 10
19.33335706388834
 20
84.68220531208862
 11
19.33335706388834
 21
87.96991323719629
 72
     1
 10
19.33335706388834
 20
87.9699132371943
 11
23.46127484862872
 21
87.97000083066881
 72
     1
 10
23.46127484862882
 20
87.97000083066905
 11
23.46128068402356
 21
87.24942688461032
 72
     1
 10
23.46128068402368
 20
87.24942688461032
 11
23.38483361126553
 21
87.24941782881563
 72
     1
 10
23.38483361126555
 20
87.24941782881614
 11
23.3848160337613
 21
87.85199925053285
 72
     1
 10
23.38481603376113
 20
87.85199925053257
 11
19.43338585167703
 21
87.85191540208439
 72
     1
 10
19.43338585167703
 20
87.85191540208415
 11
19.43338585167703
 21
84.68220531208684
 97
        0
 75
     0
 76
     1
 98
        1
 10
-1.310221215336696
 20
0.6400799863158682
450
        0
451
        0
460
0.0
461
0.0
452
        1
462
1.0
453
        2
463
0.0
 63
     5
421
      255
463
1.0
 63
     7
421
 16777215
470
LINEAR
1001
ACAD
1010
0.0
1020
0.0
1030
0.0
  0
HATCH
  5
319
330
1F
100
AcDbEntity
  8
1780s
100
AcDbHatch
 10
0.0
 20
0.0
 30
0.0
210
0.0
220
0.0
230
1.0
  2
SOLID
 70
     1
 71
     1
 91
        1
 92
        1
 93
        4
 72
     1
 10
19.43338585167703
 20
78.42738106539582
 11
19.35282862961367
 21
78.4681566862846
 72
     1
 10
19.35282862961367
 20
78.4681566862846
 11
19.35282862961367
 21
79.65692153999134
 72
     1
 10
19.35282862961367
 20
79.65692153999134
 11
19.43338585167703
 21
79.68234644405947
 72
     1
 10
19.43338585167703
 20
79.68234644405947
 11
19.43338585167703
 21
78.42738106539582
 97
        1
330
2DD
 75
     0
 76
     1
 98
        1
 10
-1.310221215336696
 20
0.6400799863158682
450
        0
451
        0
460
0.0
461
0.0
452
        1
462
1.0
453
        2
463
0.0
 63
     5
421
      255
463
1.0
 63
     7
421
 16777215
470
LINEAR
1001
ACAD
1010
0.0
1020
0.0
1030
0.0
  0
HATCH
  5
31A
330
1F
100
AcDbEntity
  8
1780s
100
AcDbHatch
 10
0.0
 20
0.0
 30
0.0
210
0.0
220
0.0
230
1.0
  2
SOLID
 70
     1
 71
     1
 91
        1
 92
        1
 93
        4
 72
     1
 10
19.43338585167703
 20
80.62298913509403
 11
19.35282862961367
 21
80.67001466946932
 72
     1
 10
19.35282862961367
 20
80.67001466946932
 11
19.35282862961367
 21
81.44154327826072
 72
     1
 10
19.35282862961367
 20
81.44154327826072
 11
19.43338585167703
 21
81.44347573399409
 72
     1
 10
19.43338585167703
 20
81.44347573399409
 11
19.43338585167703
 21
80.62298913509403
 97
        1
330
2DE
 75
     0
 76
     1
 98
        1
 10
-1.310221215336696
 20
0.6400799863158682
450
        0
451
        0
460
0.0
461
0.0
452
        1
462
1.0
453
        2
463
0.0
 63
     5
421
      255
463
1.0
 63
     7
421
 16777215
470
LINEAR
1001
ACAD
1010
0.0
1020
0.0
1030
0.0
  0
LWPOLYLINE
  5
323
330
1F
100
AcDbEntity
  8
hatch
100
AcDbPolyline
 90
        6
 70
     1
 43
0.0
 10
33.42951133644556
 20
86.60959891613904
 10
33.30307858400118
 20
86.60934689761132
 10
33.30285172135592
 20
87.34157099078881
 10
34.72523212163577
 20
87.34157099078881
 10
34.72523212163577
 20
87.21191926460248
 10
33.42951133644556
 20
87.21191926460248
  0
LWPOLYLINE
  5
32E
330
1F
100
AcDbEntity
  8
hatch
100
AcDbPolyline
 90
        6
 70
     1
 43
0.0
 10
35.82051433285462
 20
87.21191926460248
 10
36.91980899303927
 20
87.21191926460248
 10
36.91980899303927
 20
86.60931215659285
 10
37.0551445487465
 20
86.60934689761132
 10
37.0551445487465
 20
87.35656379837292
 10
35.82051433285462
 20
87.35656379837292
  0
HATCH
  5
330
330
1F
100
AcDbEntity
  8
1780s
100
AcDbHatch
 10
0.0
 20
0.0
 30
0.0
210
0.0
220
0.0
230
1.0
  2
SOLID
 70
     1
 71
     0
 91
        1
 92
        1
 93
        6
 72
     1
 10
34.51029311751518
 20
87.85199925091092
 11
35.60958777769965
 21
87.85199925091092
 72
     1
 10
35.60958777769974
 20
87.85199925091092
 11
35.60958777769974
 21
87.24939214290094
 72
     1
 10
35.60958777769974
 20
87.24939214290044
 11
35.7449233334069
 21
87.24942688391832
 72
     1
 10
35.74492333340686
 20
87.24942688392003
 11
35.74492333340686
 21
87.99664378468127
 72
     1
 10
35.74492333340686
 20
87.9966437846815
 11
34.51029311751522
 21
87.9966437846815
 72
     1
 10
34.51029311751518
 20
87.9966437846815
 11
34.51029311751518
 21
87.85199925091093
 97
        0
 75
     0
 76
     1
 98
        1
 10
-1.310221215336696
 20
0.6400799863158682
450
        0
451
        0
460
0.0
461
0.0
452
        1
462
1.0
453
        2
463
0.0
 63
     5
421
      255
463
1.0
 63
     7
421
 16777215
470
LINEAR
1001
ACAD
1010
0.0
1020
0.0
1030
0.0
  0
HATCH
  5
331
330
1F
100
AcDbEntity
  8
1780s
100
AcDbHatch
 10
0.0
 20
0.0
 30
0.0
210
0.0
220
0.0
230
1.0
  2
SOLID
 70
     1
 71
     0
 91
        1
 92
        1
 93
        6
 72
     1
 10
32.11929012110613
 20
87.24967890244716
 11
31.99285736866157
 21
87.24942688391951
 72
     1
 10
31.99285736866159
 20
87.24942688392003
 11
31.9926305060163
 21
87.98165097709704
 72
     1
 10
31.99263050601621
 20
87.98165097709716
 11
33.41501090629571
 21
87.98165097709716
 72
     1
 10
33.41501090629618
 20
87.98165097709716
 11
33.41501090629618
 21
87.85199925091083
 72
     1
 10
33.41501090629618
 20
87.85199925091092
 11
32.11929012110582
 21
87.85199925091092
 72
     1
 10
32.11929012110613
 20
87.85199925091092
 11
32.11929012110613
 21
87.24967890244789
 97
        0
 75
     0
 76
     1
 98
        1
 10
-1.310221215336696
 20
0.6400799863158682
450
        0
451
        0
460
0.0
461
0.0
452
        1
462
1.0
453
        2
463
0.0
 63
     5
421
      255
463
1.0
 63
     7
421
 16777215
470
LINEAR
1001
ACAD
1010
0.0
1020
0.0
1030
0.0
  0
LWPOLYLINE
  5
33B
330
1F
100
AcDbEntity
  8
thin outline
100
AcDbPolyline
 90
        2
 70
     0
 43
0.0
 10
19.33335706388834
 20
84.68220531208862
 10
19.33335706388834
 20
87.9699132371943
  0
LWPOLYLINE
  5
33C
330
1F
100
AcDbEntity
  8
thin outline
100
AcDbPolyline
 90
        2
 70
     0
 43
0.0
 10
19.33335706388834
 20
87.9699132371943
 10
23.46127484862882
 20
87.97000083066905
  0
LWPOLYLINE
  5
33D
330
1F
100
AcDbEntity
  8
thin outline
100
AcDbPolyline
 90
        2
 70
     0
 43
0.0
 10
23.46127484862882
 20
87.97000083066905
 10
23.46128068402368
 20
87.24942688461032
  0
LWPOLYLINE
  5
33E
330
1F
100
AcDbEntity
  8
thin outline
100
AcDbPolyline
 90
        2
 70
     0
 43
0.0
 10
23.46128068402368
 20
87.24942688461032
 10
23.38483361126555
 20
87.24941782881614
  0
LWPOLYLINE
  5
34E
330
1F
100
AcDbEntity
  8
hatch
100
AcDbPolyline
 90
        4
 70
     1
 43
0.0
 10
22.71537242163903
 20
75.12462754479173
 10
22.68313841802601
 20
75.03149989862805
 42
0.0697586987306372
 10
23.53371579786649
 20
74.86143260856012
 10
23.53647829761037
 20
74.95626181329777
 42
-0.0708105247647299
  0
HATCH
  5
34F
330
1F
100
AcDbEntity
  8
late 20th century
100
AcDbHatch
 10
0.0
 20
0.0
 30
0.0
210
0.0
220
0.0
230
1.0
  2
SOLID
 70
     1
 71
     0
 91
        1
 92
        1
 93
        4
 72
     1
 10
21.40515120630062
 20
75.76470753110061
 11
21.37291720268784
 21
75.67157988493637
 72
     2
 10
22.40472414325996
 20
78.61999673034915
 40
3.123745741401807
 50
250.7123594115495
 51
266.6740177324383
 73
     1
 72
     1
 10
22.22349458252756
 20
75.50151259486938
 11
22.22625708227119
 21
75.59634179960766
 72
     2
 10
22.40714702765308
 20
78.56494314246993
 40
2.974107446812725
 50
93.48697257252551
 51
109.6885066731192
 73
     0
 97
        0
 75
     0
 76
     1
 98
        1
 10
-1.310221215336696
 20
0.6400799863158682
450
        0
451
        0
460
0.0
461
0.0
452
        1
462
1.0
453
        2
463
0.0
 63
     5
421
      255
463
1.0
 63
     7
421
 16777215
470
LINEAR
1001
ACAD
1010
0.0
1020
0.0
1030
0.0
  0
HATCH
  5
350
330
1F
100
AcDbEntity
  8
19th century
100
AcDbHatch
 10
0.0
 20
0.0
 30
0.0
210
0.0
220
0.0
230
1.0
  2
SOLID
 70
     1
 71
     1
 91
        1
 92
        1
 93
        5
 72
     2
 10
22.15349335303688
 20
78.2539578870644
 40
2.585053657821483
 50
177.8933286638532
 51
188.5798505116997
 73
     1
 72
     1
 10
19.59736926921641
 20
77.86829990137085
 11
19.82359617371185
 21
77.90438577324493
 72
     2
 10
22.81528078973053
 20
78.24340860279341
 40
3.010832662350714
 50
173.5347251770111
 51
177.7721180730188
 73
     0
 72
     1
 10
19.80672396346335
 20
78.12636526125243
 11
19.80672396346335
 21
78.34898463282661
 72
     1
 10
19.80672396346335
 20
78.34898463282661
 11
19.57018688043126
 21
78.34898463282661
 97
        1
330
1E2
 75
     0
 76
     1
 98
        1
 10
-1.310221215336696
 20
0.6400799863158682
450
        0
451
        0
460
0.0
461
0.0
452
        1
462
1.0
453
        2
463
0.0
 63
     5
421
      255
463
1.0
 63
     7
421
 16777215
470
LINEAR
1001
ACAD
1010
0.0
1020
0.0
1030
0.0
  0
HATCH
  5
351
330
1F
100
AcDbEntity
  8
19th century
100
AcDbHatch
 10
0.0
 20
0.0
 30
0.0
210
0.0
220
0.0
230
1.0
  2
SOLID
 70
     1
 71
     1
 91
        1
 92
        1
 93
        8
 72
     2
 10
22.44007804441454
 20
78.57370327362736
 40
2.890248770955413
 50
85.51641118599375
 51
94.18771306620278
 73
     0
 72
     1
 10
22.22901958201555
 20
75.69117100434414
 11
22.2232940975623
 21
75.49857692342175
 72
     2
 10
22.41203887789324
 20
80.41907799416723
 40
4.924119756800145
 50
267.8032765787646
 51
272.9565591682773
 73
     1
 72
     1
 10
22.66601904038271
 20
75.50151259486938
 11
22.66601904038271
 21
75.33593108142395
 72
     1
 10
22.66601904038271
 20
75.33593108142395
 11
24.41340518862808
 21
75.33593108142395
 72
     1
 10
24.41340518862808
 20
75.33593108142395
 11
24.41340518862808
 21
75.98593108142359
 72
     1
 10
24.41340518862808
 20
75.98593108142359
 11
22.66601904038271
 21
75.98593108142359
 72
     1
 10
22.66601904038271
 20
75.98593108142359
 11
22.66601904038271
 21
75.69229934075884
 97
        1
330
221
 75
     0
 76
     1
 98
        1
 10
-1.310221215336696
 20
0.6400799863158682
450
        0
451
        0
460
0.0
461
0.0
452
        1
462
1.0
453
        2
463
0.0
 63
     5
421
      255
463
1.0
 63
     7
421
 16777215
470
LINEAR
1001
ACAD
1010
0.0
1020
0.0
1030
0.0
  0
HATCH
  5
352
330
1F
100
AcDbEntity
  8
19th century
100
AcDbHatch
 10
0.0
 20
0.0
 30
0.0
210
0.0
220
0.0
230
1.0
  2
SOLID
 70
     1
 71
     1
 91
        1
 92
        1
 93
        4
 72
     1
 10
20.93578033884341
 20
75.85218732809881
 11
21.06278039158178
 21
76.03272135052975
 72
     2
 10
22.30208422204815
 20
78.19928407255386
 40
2.495970354926742
 50
240.2298466702082
 51
249.7754770124794
 73
     1
 72
     1
 10
21.43922764768013
 20
75.85720240345199
 11
21.37107476492065
 21
75.67221265874923
 72
     2
 10
22.4701309850892
 20
78.94683518316046
 40
3.45413914781564
 50
108.5532135506069
 51
116.3725743510803
 73
     0
 97
        1
330
1E9
 75
     0
 76
     1
 98
        1
 10
-1.310221215336696
 20
0.6400799863158682
450
        0
451
        0
460
0.0
461
0.0
452
        1
462
1.0
453
        2
463
0.0
 63
     5
421
      255
463
1.0
 63
     7
421
 16777215
470
LINEAR
1001
ACAD
1010
0.0
1020
0.0
1030
0.0
  0
HATCH
  5
353
330
1F
100
AcDbEntity
  8
19th century
100
AcDbHatch
 10
0.0
 20
0.0
 30
0.0
210
0.0
220
0.0
230
1.0
  2
SOLID
 70
     1
 71
     1
 91
        1
 92
        1
 93
        4
 72
     1
 10
19.91846917109979
 20
76.8892841460447
 11
20.11555119327841
 21
76.99556428507185
 72
     2
 10
22.30208422204494
 20
78.19928407255247
 40
2.495970354923981
 50
208.8334543975666
 51
218.8980209087926
 73
     1
 72
     1
 10
20.35955825575411
 20
76.63197399380442
 11
20.17685626840239
 21
76.49192071991183
 72
     2
 10
23.55188574283239
 20
78.96923694156075
 40
4.186635835048965
 50
143.7208390385577
 51
150.2109790443175
 73
     0
 97
        1
330
1E5
 75
     0
 76
     1
 98
        1
 10
-1.310221215336696
 20
0.6400799863158682
450
        0
451
        0
460
0.0
461
0.0
452
        1
462
1.0
453
        2
463
0.0
 63
     5
421
      255
463
1.0
 63
     7
421
 16777215
470
LINEAR
1001
ACAD
1010
0.0
1020
0.0
1030
0.0
  0
HATCH
  5
355
330
1F
100
AcDbEntity
  8
19th century
100
AcDbHatch
 10
0.0
 20
0.0
 30
0.0
210
0.0
220
0.0
230
1.0
  2
SOLID
 70
     1
 71
     0
 91
        1
 92
        1
 93
       13
 72
     2
 10
22.33157857231663
 20
78.23915433417005
 40
2.853256272940199
 50
83.31159821153871
 51
182.1703287039538
 73
     0
 72
     1
 10
19.48036904852961
 20
78.3472080732854
 11
19.57018688043154
 21
78.34898463282559
 72
     2
 10
22.16847045162694
 20
78.25480483162028
 40
2.599989875230057
 50
177.9241127337345
 51
188.5490664417901
 73
     1
 72
     1
 10
19.59736926921641
 20
77.86829990137085
 11
19.67966304479281
 21
77.88155026065317
 72
     2
 10
22.85893792937213
 20
78.42659096177976
 40
3.225656236737225
 50
189.7279663253859
 51
207.5799460896496
 73
     1
 72
     1
 10
19.999826940194
 20
76.93315783332855
 11
19.91846917109988
 21
76.88928414604482
 72
     2
 10
23.55188574282238
 20
78.96923694156431
 40
4.18663583504291
 50
209.7890209558033
 51
216.3201093477276
 73
     1
 72
     1
 10
20.17862762885716
 20
76.48950927267924
 11
20.23900026673988
 21
76.53782900189617
 72
     2
 10
22.18209044739069
 20
78.09299694992296
 40
2.488804290559752
 50
218.6723165048068
 51
240.9377296494102
 73
     1
 72
     1
 10
20.9731291483854
 20
75.91755231164461
 11
20.93983536397758
 21
75.85018012253846
 72
     2
 10
22.41502155977741
 20
78.81326874331444
 40
3.309995239703793
 50
243.5333881919107
 51
251.624588702083
 73
     1
 72
     2
 10
22.44703882021895
 20
78.77483752352145
 40
3.283891779684106
 50
250.8830504890724
 51
273.8234997719691
 73
     1
 72
     1
 10
22.66601904038271
 20
75.49825502282693
 11
22.66389644642007
 21
75.40531662011098
 97
        0
 75
     0
 76
     1
 98
        1
 10
-1.310221215336696
 20
0.6400799863158682
450
        0
451
        0
460
0.0
461
0.0
452
        1
462
1.0
453
        2
463
0.0
 63
     5
421
      255
463
1.0
 63
     7
421
 16777215
470
LINEAR
1001
ACAD
1010
0.0
1020
0.0
1030
0.0
  0
LWPOLYLINE
  5
35C
330
1F
100
AcDbEntity
  8
thin outline
100
AcDbPolyline
 90
        2
 70
     0
 43
0.0
 10
30.31894874758837
 20
75.98593108142359
 10
30.31894874758837
 20
75.26815465121399
  0
LWPOLYLINE
  5
360
330
1F
100
AcDbEntity
  8
hatch
100
AcDbPolyline
 90
       10
 70
     1
 43
0.0
 10
27.52916996292718
 20
74.69585109511452
 10
27.70523876961331
 20
74.69593368200671
 10
27.70523876961331
 20
74.65545147684244
 10
26.70102447585923
 20
74.65545147684244
 10
26.70102447585923
 20
74.69585109511452
 10
26.35826197017575
 20
74.69585109511452
 10
26.35826197017575
 20
75.34585109511453
 10
26.87184279868374
 20
75.34585109511453
 10
26.87184279868374
 20
74.69585109511452
 10
27.52916996292718
 20
74.69585109511452
  0
HATCH
  5
361
330
1F
100
AcDbEntity
  8
19th century
100
AcDbHatch
 10
0.0
 20
0.0
 30
0.0
210
0.0
220
0.0
230
1.0
  2
SOLID
 70
     1
 71
     0
 91
        1
 92
        1
 93
        9
 72
     1
 10
26.218948747588
 20
75.33593108142395
 11
26.39501755427394
 21
75.33601366831629
 72
     1
 10
26.39501755427409
 20
75.33601366831589
 11
26.39501755427409
 21
75.29553146315095
 72
     1
 10
26.39501755427409
 20
75.29553146315084
 11
25.39080326051987
 21
75.29553146315084
 72
     1
 10
25.39080326052044
 20
75.29553146315084
 11
25.39080326052044
 21
75.33593108142344
 72
     1
 10
25.39080326052044
 20
75.33593108142395
 11
25.04804075483679
 21
75.33593108142395
 72
     1
 10
25.04804075483708
 20
75.33593108142395
 11
25.04804075483708
 21
75.98593108142416
 72
     1
 10
25.04804075483708
 20
75.98593108142359
 11
25.56162158334529
 21
75.98593108142359
 72
     1
 10
25.56162158334519
 20
75.98593108142359
 11
25.56162158334519
 21
75.33593108142338
 72
     1
 10
25.56162158334519
 20
75.33593108142395
 11
26.21894874758891
 21
75.33593108142395
 97
        0
 75
     0
 76
     1
 98
        1
 10
-1.310221215336696
 20
0.6400799863158682
450
        0
451
        0
460
0.0
461
0.0
452
        1
462
1.0
453
        2
463
0.0
 63
     5
421
      255
463
1.0
 63
     7
421
 16777215
470
LINEAR
1001
ACAD
1010
0.0
1020
0.0
1030
0.0
  0
LWPOLYLINE
  5
363
330
1F
100
AcDbEntity
  8
thin outline
100
AcDbPolyline
 90
        2
 70
     0
 43
0.0
 10
26.218948747588
 20
75.29726376848521
 10
26.218948747588
 20
75.26815465121399
  0
LWPOLYLINE
  5
365
330
1F
100
AcDbEntity
  8
hatch
100
AcDbPolyline
 90
        6
 70
     1
 43
0.0
 10
26.69162528488734
 20
74.69585109511452
 10
26.70102447585923
 20
74.69586244572326
 10
26.70102447585923
 20
74.65545147684244
 10
27.52916996292718
 20
74.65545147684244
 10
27.52916996292718
 20
74.62807466490554
 10
26.69649002063196
 20
74.62807466490554
  0
HATCH
  5
366
330
1F
100
AcDbEntity
  8
19th century
100
AcDbHatch
 10
0.0
 20
0.0
 30
0.0
210
0.0
220
0.0
230
1.0
  2
SOLID
 70
     1
 71
     0
 91
        1
 92
        1
 93
        6
 72
     1
 10
25.38140406954835
 20
75.33593108142395
 11
25.39080326052056
 21
75.33594243203293
 72
     1
 10
25.39080326052044
 20
75.33594243203243
 11
25.39080326052044
 21
75.29553146315226
 72
     1
 10
25.39080326052044
 20
75.29553146315084
 11
26.21894874758802
 21
75.29553146315084
 72
     1
 10
26.218948747588
 20
75.29553146315084
 11
26.218948747588
 21
75.26815465121377
 72
     1
 10
26.218948747588
 20
75.26815465121399
 11
25.38626880529277
 21
75.26815465121399
 72
     1
 10
25.38626880529273
 20
75.26815465121399
 11
25.38140406954819
 21
75.33593108142366
 97
        0
 75
     0
 76
     1
 98
        1
 10
-1.310221215336696
 20
0.6400799863158682
450
        0
451
        0
460
0.0
461
0.0
452
        1
462
1.0
453
        2
463
0.0
 63
     5
421
      255
463
1.0
 63
     7
421
 16777215
470
LINEAR
1001
ACAD
1010
0.0
1020
0.0
1030
0.0
  0
HATCH
  5
36E
330
1F
100
AcDbEntity
  8
19th century
100
AcDbHatch
 10
0.0
 20
0.0
 30
0.0
210
0.0
220
0.0
230
1.0
  2
SOLID
 70
     1
 71
     0
 91
        1
 92
        1
 93
        8
 72
     1
 10
25.2650174741998
 20
75.33593108142395
 11
25.23999300149422
 21
75.26815465121427
 72
     1
 10
25.23999300149353
 20
75.26815465121399
 11
22.66601904038259
 21
75.26815465121399
 72
     1
 10
22.66601904038271
 20
75.26815465121399
 11
22.66598382900827
 21
75.33593106313003
 72
     1
 10
22.66598382900793
 20
75.33593106313038
 11
24.31926597822621
 21
75.3360607111681
 72
     1
 10
24.31926597822621
 20
75.3360607111681
 11
24.31926597822621
 21
75.30570347669044
 72
     1
 10
24.31926597822621
 20
75.30570347668981
 11
25.14825605354095
 21
75.30570347668981
 72
     1
 10
25.14825605354099
 20
75.30570347668981
 11
25.14825605354099
 21
75.33593108142338
 72
     1
 10
25.14825605354099
 20
75.33593108142395
 11
25.26501747419893
 21
75.33593108142395
 97
        0
 75
     0
 76
     1
 98
        1
 10
-1.310221215336696
 20
0.6400799863158682
450
        0
451
        0
460
0.0
461
0.0
452
        1
462
1.0
453
        2
463
0.0
 63
     5
421
      255
463
1.0
 63
     7
421
 16777215
470
LINEAR
1001
ACAD
1010
0.0
1020
0.0
1030
0.0
  0
LWPOLYLINE
  5
374
330
1F
100
AcDbEntity
  8
hatch
100
AcDbPolyline
 90
        4
 70
     1
 43
0.0
 10
25.62948719356526
 20
74.69675890161567
 10
25.62948719356526
 20
74.66562349038085
 10
26.45847726888022
 20
74.66562349038085
 10
26.45847726888022
 20
74.69585109511452
  0
HATCH
  5
375
330
1F
100
AcDbEntity
  8
late 20th century
100
AcDbHatch
 10
0.0
 20
0.0
 30
0.0
210
0.0
220
0.0
230
1.0
  2
SOLID
 70
     1
 71
     0
 91
        1
 92
        1
 93
        4
 72
     1
 10
24.31926597822621
 20
75.33683888792438
 11
24.31926597822621
 21
75.30570347669026
 72
     1
 10
24.31926597822621
 20
75.30570347668981
 11
25.14825605354095
 21
75.30570347668981
 72
     1
 10
25.14825605354099
 20
75.30570347668981
 11
25.14825605354099
 21
75.33593108142338
 72
     1
 10
25.14825605354099
 20
75.33593108142395
 11
24.31926597822626
 21
75.3368388879245
 97
        0
 75
     0
 76
     1
 98
        1
 10
-1.310221215336696
 20
0.6400799863158682
450
        0
451
        0
460
0.0
461
0.0
452
        1
462
1.0
453
        2
463
0.0
 63
     5
421
      255
463
1.0
 63
     7
421
 16777215
470
LINEAR
1001
ACAD
1010
0.0
1020
0.0
1030
0.0
  0
LWPOLYLINE
  5
37C
330
1F
100
AcDbEntity
  8
hatch
100
AcDbPolyline
 90
        9
 70
     1
 43
0.0
 10
27.52916996292718
 20
75.34585109511453
 10
31.62916996292718
 20
75.34585109511453
 10
31.62916996292718
 20
74.62807466490554
 10
27.52916996292718
 20
74.62807466490501
 10
27.52916996292718
 20
74.65545147684244
 10
27.70523876961331
 20
74.65545147684244
 10
27.70523876961331
 20
74.69585109511452
 10
27.52916996292718
 20
74.69585109511452
 10
27.52916996292718
 20
75.34585109511453
  0
HATCH
  5
382
330
1F
100
AcDbEntity
  8
late 20th century
100
AcDbHatch
 10
0.0
 20
0.0
 30
0.0
210
0.0
220
0.0
230
1.0
  2
SOLID
 70
     1
 71
     0
 91
        1
 92
        1
 93
        8
 72
     1
 10
26.218948747588
 20
75.98593108142359
 11
30.31894874758734
 21
75.98593108142359
 72
     1
 10
30.31894874758837
 20
75.98593108142359
 11
30.31894874758837
 21
75.26815465121512
 72
     1
 10
30.31894874758837
 20
75.26815465121399
 11
26.21894874758903
 21
75.26815465121399
 72
     1
 10
26.218948747588
 20
75.26815465121399
 11
26.218948747588
 21
75.29553146315106
 72
     1
 10
26.218948747588
 20
75.29553146315084
 11
26.39501755427394
 21
75.29553146315084
 72
     1
 10
26.39501755427409
 20
75.29553146315084
 11
26.39501755427409
 21
75.33593108142344
 72
     1
 10
26.39501755427409
 20
75.33593108142395
 11
26.21894874758816
 21
75.33593108142395
 72
     1
 10
26.218948747588
 20
75.33593108142395
 11
26.218948747588
 21
75.98593108142416
 97
        0
 75
     0
 76
     1
 98
        1
 10
-1.310221215336696
 20
0.6400799863158682
450
        0
451
        0
460
0.0
461
0.0
452
        1
462
1.0
453
        2
463
0.0
 63
     5
421
      255
463
1.0
 63
     7
421
 16777215
470
LINEAR
1001
ACAD
1010
0.0
1020
0.0
1030
0.0
  0
LWPOLYLINE
  5
384
330
1F
100
AcDbEntity
  8
hatch
100
AcDbPolyline
 90
        5
 70
     1
 43
0.0
 10
31.62916996292718
 20
74.69585109511452
 10
36.83916996292718
 20
74.69585109511452
 10
36.83916996292718
 20
74.69585109511452
 10
36.83916996292718
 20
74.62807466490554
 10
31.62916996292718
 20
74.62807466490554
  0
HATCH
  5
387
330
1F
100
AcDbEntity
  8
19th century
100
AcDbHatch
 10
0.0
 20
0.0
 30
0.0
210
0.0
220
0.0
230
1.0
  2
SOLID
 70
     1
 71
     0
 91
        1
 92
        1
 93
        4
 72
     1
 10
30.31894874758837
 20
75.33593108142395
 11
35.52894874758822
 21
75.33593108142395
 72
     1
 10
35.52894874758749
 20
75.33593108142395
 11
35.52894874758749
 21
75.26815465121427
 72
     1
 10
35.52894874758749
 20
75.26815465121399
 11
30.31894874758764
 21
75.26815465121399
 72
     1
 10
30.31894874758837
 20
75.26815465121399
 11
30.31894874758837
 21
75.33593108142366
 97
        0
 75
     0
 76
     1
 98
        1
 10
-1.310221215336696
 20
0.6400799863158682
450
        0
451
        0
460
0.0
461
0.0
452
        1
462
1.0
453
        2
463
0.0
 63
     5
421
      255
463
1.0
 63
     7
421
 16777215
470
LINEAR
1001
ACAD
1010
0.0
1020
0.0
1030
0.0
  0
LWPOLYLINE
  5
38B
330
1F
100
AcDbEntity
  8
thin outline
100
AcDbPolyline
 90
        2
 70
     0
 43
0.0
 10
31.3389487475879
 20
75.98593108142359
 10
31.3389487475879
 20
75.33593108142395
  0
LWPOLYLINE
  5
38C
330
1F
100
AcDbEntity
  8
thin outline
100
AcDbPolyline
 90
        2
 70
     0
 43
0.0
 10
33.01894874758728
 20
75.98593108142359
 10
33.01894874758728
 20
75.33593108142395
  0
LWPOLYLINE
  5
38D
330
1F
100
AcDbEntity
  8
hatch
100
AcDbPolyline
 90
        4
 70
     1
 43
0.0
 10
31.62916996292718
 20
75.34585109511453
 10
31.62916996292718
 20
74.69585109511452
 10
32.64916996292718
 20
74.69585109511452
 10
32.64916996292718
 20
75.34585109511453
  0
LWPOLYLINE
  5
38E
330
1F
100
AcDbEntity
  8
hatch
100
AcDbPolyline
 90
        4
 70
     1
 43
0.0
 10
32.64916996292718
 20
75.34585109511453
 10
32.64916996292718
 20
74.69585109511452
 10
34.32916996292718
 20
74.69585109511452
 10
34.32916996292718
 20
75.34585109511453
  0
HATCH
  5
38F
330
1F
100
AcDbEntity
  8
19th century
100
AcDbHatch
 10
0.0
 20
0.0
 30
0.0
210
0.0
220
0.0
230
1.0
  2
SOLID
 70
     1
 71
     0
 91
        1
 92
        1
 93
        4
 72
     1
 10
30.31894874758837
 20
75.98593108142359
 11
30.31894874758837
 21
75.33593108142338
 72
     1
 10
30.31894874758837
 20
75.33593108142395
 11
31.33894874758804
 21
75.33593108142395
 72
     1
 10
31.3389487475879
 20
75.33593108142395
 11
31.3389487475879
 21
75.98593108142416
 72
     1
 10
31.3389487475879
 20
75.98593108142359
 11
30.31894874758823
 21
75.98593108142359
 97
        0
 75
     0
 76
     1
 98
        1
 10
-1.310221215336696
 20
0.6400799863158682
450
        0
451
        0
460
0.0
461
0.0
452
        1
462
1.0
453
        2
463
0.0
 63
     5
421
      255
463
1.0
 63
     7
421
 16777215
470
LINEAR
1001
ACAD
1010
0.0
1020
0.0
1030
0.0
  0
HATCH
  5
390
330
1F
100
AcDbEntity
  8
late 20th century
100
AcDbHatch
 10
0.0
 20
0.0
 30
0.0
210
0.0
220
0.0
230
1.0
  2
SOLID
 70
     1
 71
     0
 91
        1
 92
        1
 93
        4
 72
     1
 10
31.3389487475879
 20
75.98593108142359
 11
31.3389487475879
 21
75.33593108142338
 72
     1
 10
31.3389487475879
 20
75.33593108142395
 11
33.0189487475881
 21
75.33593108142395
 72
     1
 10
33.01894874758728
 20
75.33593108142395
 11
33.01894874758728
 21
75.98593108142416
 72
     1
 10
33.01894874758728
 20
75.98593108142359
 11
31.33894874758707
 21
75.98593108142359
 97
        0
 75
     0
 76
     1
 98
        1
 10
-1.310221215336696
 20
0.6400799863158682
450
        0
451
        0
460
0.0
461
0.0
452
        1
462
1.0
453
        2
463
0.0
 63
     5
421
      255
463
1.0
 63
     7
421
 16777215
470
LINEAR
1001
ACAD
1010
0.0
1020
0.0
1030
0.0
  0
LWPOLYLINE
  5
392
330
1F
100
AcDbEntity
  8
thin outline
100
AcDbPolyline
 90
        2
 70
     0
 43
0.0
 10
35.52894874758749
 20
75.98593108142359
 10
35.52894874758749
 20
75.33593108142395
  0
LWPOLYLINE
  5
393
330
1F
100
AcDbEntity
  8
hatch
100
AcDbPolyline
 90
        4
 70
     1
 43
0.0
 10
34.32916996292718
 20
75.34585109511453
 10
34.32916996292718
 20
74.69585109511452
 10
36.83916996292718
 20
74.69585109511452
 10
36.83916996292718
 20
75.34585109511453
  0
LWPOLYLINE
  5
394
330
1F
100
AcDbEntity
  8
hatch
100
AcDbPolyline
 90
        7
 70
     1
 43
0.0
 10
36.83916996292718
 20
75.34585109511453
 10
36.83916996292718
 20
74.69585109511452
 10
36.83916996292718
 20
74.62807466490554
 10
38.5917254167004
 20
74.62807466490554
 10
38.64440347583253
 20
74.67107860673245
 10
38.93622457766922
 20
74.67107860673245
 10
38.93622457766922
 20
75.34585109511453
  0
HATCH
  5
399
330
1F
100
AcDbEntity
  8
19th century
100
AcDbHatch
 10
0.0
 20
0.0
 30
0.0
210
0.0
220
0.0
230
1.0
  2
SOLID
 70
     1
 71
     0
 91
        1
 92
        1
 93
        4
 72
     1
 10
33.01894874758728
 20
75.98593108142359
 11
33.01894874758728
 21
75.33593108142338
 72
     1
 10
33.01894874758728
 20
75.33593108142395
 11
35.52894874758725
 21
75.33593108142395
 72
     1
 10
35.52894874758749
 20
75.33593108142395
 11
35.52894874758749
 21
75.98593108142416
 72
     1
 10
35.52894874758749
 20
75.98593108142359
 11
33.01894874758751
 21
75.98593108142359
 97
        0
 75
     0
 76
     1
 98
        1
 10
-1.310221215336696
 20
0.6400799863158682
450
        0
451
        0
460
0.0
461
0.0
452
        1
462
1.0
453
        2
463
0.0
 63
     5
421
      255
463
1.0
 63
     7
421
 16777215
470
LINEAR
1001
ACAD
1010
0.0
1020
0.0
1030
0.0
  0
HATCH
  5
39A
330
1F
100
AcDbEntity
  8
late 20th century
100
AcDbHatch
 10
0.0
 20
0.0
 30
0.0
210
0.0
220
0.0
230
1.0
  2
SOLID
 70
     1
 71
     0
 91
        1
 92
        1
 93
        7
 72
     1
 10
35.52894874758749
 20
75.98593108142359
 11
35.52894874758749
 21
75.33593108142338
 72
     1
 10
35.52894874758749
 20
75.33593108142395
 11
35.52894874758749
 21
75.26815465121427
 72
     1
 10
35.52894874758749
 20
75.26815465121399
 11
37.28150420136074
 21
75.26815465121399
 72
     1
 10
37.2815042013608
 20
75.26815465121399
 11
37.334182260493
 21
75.3111585930402
 72
     1
 10
37.33418226049298
 20
75.31115859304191
 11
37.62600336232978
 21
75.31115859304191
 72
     1
 10
37.62600336232981
 20
75.31115859304191
 11
37.62600336232981
 21
75.98593108142416
 72
     1
 10
37.62600336232981
 20
75.98593108142359
 11
35.52894874758827
 21
75.98593108142359
 97
        0
 75
     0
 76
     1
 98
        1
 10
-1.310221215336696
 20
0.6400799863158682
450
        0
451
        0
460
0.0
461
0.0
452
        1
462
1.0
453
        2
463
0.0
 63
     5
421
      255
463
1.0
 63
     7
421
 16777215
470
LINEAR
1001
ACAD
1010
0.0
1020
0.0
1030
0.0
  0
HATCH
  5
3A7
330
1F
100
AcDbEntity
  8
20th century
100
AcDbHatch
 10
0.0
 20
0.0
 30
0.0
210
0.0
220
0.0
230
1.0
  2
SOLID
 70
     1
 71
     1
 91
        1
 92
        1
 93
       10
 72
     1
 10
46.29536433938301
 20
75.3088710265747
 11
46.29536807338399
 21
75.98593108142359
 72
     1
 10
46.29536807338399
 20
75.98593108142359
 11
47.23011324885237
 21
75.98593108142359
 72
     1
 10
47.23011324885237
 20
75.98593108142359
 11
47.22888428097394
 21
76.84703193161931
 72
     1
 10
47.22888428097394
 20
76.84703193161931
 11
47.88011324885246
 21
76.84803905608532
 72
     1
 10
47.88011324885246
 20
76.84803905608532
 11
47.88011324885246
 21
76.13061955609373
 72
     1
 10
47.88011324885246
 20
76.13061955609373
 11
47.10227171869473
 21
75.3310952980828
 72
     1
 10
47.10227171869473
 20
75.3310952980828
 11
46.3918528246013
 21
75.3310952980828
 72
     1
 10
46.3918528246013
 20
75.3310952980828
 11
46.3918528246013
 21
75.31996050934594
 72
     1
 10
46.3918528246013
 20
75.31996050934594
 11
46.39187062921109
 21
75.30902819891799
 72
     1
 10
46.39187062921109
 20
75.30902819891799
 11
46.29536433938301
 21
75.3088710265747
 97
        1
330
23A
 75
     0
 76
     1
 98
        1
 10
-1.310221215336696
 20
0.6400799863158682
450
        0
451
        0
460
0.0
461
0.0
452
        1
462
1.0
453
        2
463
0.0
 63
     5
421
      255
463
1.0
 63
     7
421
 16777215
470
LINEAR
1001
ACAD
1010
0.0
1020
0.0
1030
0.0
  0
HATCH
  5
3A8
330
1F
100
AcDbEntity
  8
20th century
100
AcDbHatch
 10
0.0
 20
0.0
 30
0.0
210
0.0
220
0.0
230
1.0
  2
SOLID
 70
     1
 71
     0
 91
        1
 92
        1
 93
        4
 72
     1
 10
47.22905027638126
 20
78.38488493864497
 11
47.22905027638126
 21
77.9415693305131
 72
     1
 10
47.22905027638126
 20
77.94156933051272
 11
47.86974930882621
 21
77.94156933051272
 72
     1
 10
47.86974930882616
 20
77.94156933051272
 11
47.86738465443386
 21
78.38488493864459
 72
     1
 10
47.86738465443386
 20
78.38488493864497
 11
47.22905027638191
 21
78.38488493864497
 97
        0
 75
     0
 76
     1
 98
        1
 10
-1.310221215336696
 20
0.6400799863158682
450
        0
451
        0
460
0.0
461
0.0
452
        1
462
1.0
453
        2
463
0.0
 63
     5
421
      255
463
1.0
 63
     7
421
 16777215
470
LINEAR
1001
ACAD
1010
0.0
1020
0.0
1030
0.0
  0
LWPOLYLINE
  5
3AF
330
1F
100
AcDbEntity
  8
hatch
100
AcDbPolyline
 90
        9
 70
     1
 43
0.0
 10
46.82706398636527
 20
74.69101283422887
 10
46.82733503838131
 20
74.65156958541051
 10
47.79844895221136
 20
74.65156958541051
 10
47.7985218061868
 20
74.69083636654379
 10
47.70207403994212
 20
74.69101531177411
 10
47.70207403994212
 20
74.67313654381064
 10
47.70207403994212
 20
74.66894818361139
 10
46.87866223694562
 20
74.66894818361139
 10
46.87866223694562
 20
74.69101283422887
  0
HATCH
  5
3B0
330
1F
100
AcDbEntity
  8
20th century
100
AcDbHatch
 10
0.0
 20
0.0
 30
0.0
210
0.0
220
0.0
230
1.0
  2
SOLID
 70
     1
 71
     0
 91
        1
 92
        1
 93
        9
 72
     1
 10
45.51684277102459
 20
75.33109282053828
 11
45.51711382304026
 21
75.29164957172042
 72
     1
 10
45.51711382304029
 20
75.29164957171906
 11
46.48822773687058
 21
75.29164957171906
 72
     1
 10
46.48822773687061
 20
75.29164957171906
 11
46.4883005908459
 21
75.33091635285166
 72
     1
 10
46.48830059084594
 20
75.33091635285291
 11
46.39185282460096
 21
75.33109529808275
 72
     1
 10
46.3918528246013
 20
75.3310952980828
 11
46.3918528246013
 21
75.3132165301198
 72
     1
 10
46.3918528246013
 20
75.31321653012037
 11
46.3918528246013
 21
75.30902816992091
 72
     1
 10
46.3918528246013
 20
75.30902816992057
 11
45.56844102160458
 21
75.30902816992057
 72
     1
 10
45.56844102160494
 20
75.30902816992057
 11
45.56844102160494
 21
75.33109282053846
 72
     1
 10
45.56844102160494
 20
75.33109282053828
 11
45.51684277102465
 21
75.33109282053828
 97
        0
 75
     0
 76
     1
 98
        1
 10
-1.310221215336696
 20
0.6400799863158682
450
        0
451
        0
460
0.0
461
0.0
452
        1
462
1.0
453
        2
463
0.0
 63
     5
421
      255
463
1.0
 63
     7
421
 16777215
470
LINEAR
1001
ACAD
1010
0.0
1020
0.0
1030
0.0
  0
LWPOLYLINE
  5
3B5
330
1F
100
AcDbEntity
  8
outline
100
AcDbPolyline
 90
        2
 70
     0
 43
0.0
 10
24.41340518862808
 20
75.33593108142395
 10
25.04804075483708
 20
75.33593108142395
  0
LWPOLYLINE
  5
3B9
330
1F
100
AcDbEntity
  8
Thick outline
100
AcDbPolyline
 90
        2
 70
     0
 43
0.0
 10
21.40515120630062
 20
75.76470753110061
 42
0.0707342848160672
 10
22.22625708227178
 20
75.59634179960721
 42
0.2050475297047299
  0
LWPOLYLINE
  5
3C1
330
1F
100
AcDbEntity
  8
hatch
100
AcDbPolyline
 90
        8
 70
     1
 43
0.0
 10
34.58422812557096
 20
87.34157099078881
 10
34.58422812557096
 20
89.02029233686111
 10
35.96674491588455
 20
89.02029233686111
 10
35.96674491588455
 20
87.35656379837292
 10
35.82051433285462
 20
87.35656379837292
 10
35.82051433285462
 20
87.21191926460248
 10
34.72523212163577
 20
87.21191926460248
 10
34.72523212163577
 20
87.34157099078881
  0
LWPOLYLINE
  5
3CB
330
1F
100
AcDbEntity
  8
hatch
100
AcDbPolyline
 90
        4
 70
     1
 43
0.0
 10
24.77149731686313
 20
87.28137466490554
 10
33.30307858400118
 20
87.28137466490554
 10
33.30307858400118
 20
86.60934689761132
 10
24.77149731686313
 20
86.60934689761132
  0
LWPOLYLINE
  5
3CD
102
{ACAD_REACTORS
330
3D8
102
}
330
1F
100
AcDbEntity
  8
hatch
100
AcDbPolyline
 90
        8
 70
     1
 43
0.0
 10
37.0551445487465
 20
87.28137466490554
 10
43.14753499646722
 20
87.28137466490554
 10
43.14883481933269
 20
87.20254248290599
 10
42.62216263813018
 20
87.20254248290599
 10
42.62216263813018
 20
86.68603318660663
 10
43.14883481933269
 20
86.68603318660663
 10
43.14883481933269
 20
86.60934689761132
 10
37.0551445487465
 20
86.60934689761132
  0
HATCH
  5
3D8
330
1F
100
AcDbEntity
  8
20th century
100
AcDbHatch
 10
0.0
 20
0.0
 30
0.0
210
0.0
220
0.0
230
1.0
  2
SOLID
 70
     1
 71
     0
 91
        3
 92
        1
 93
        4
 72
     1
 10
23.46127610152462
 20
87.92145465121393
 11
31.99285736866211
 21
87.92145465121393
 72
     1
 10
31.99285736866159
 20
87.92145465121393
 11
31.99285736866159
 21
87.24942688391996
 72
     1
 10
31.99285736866159
 20
87.24942688392003
 11
23.4612761015241
 21
87.24942688392003
 72
     1
 10
23.46127610152462
 20
87.24942688392003
 11
23.46127610152462
 21
87.92145465121398
 97
        0
 92
       16
 93
        4
 72
     1
 10
28.93638473086367
 20
87.82334145954337
 11
28.93638473086367
 21
87.3068321632437
 72
     1
 10
28.93638473086367
 20
87.30683216324541
 11
29.46305691206639
 21
87.30683216324541
 72
     1
 10
29.46305691206635
 20
87.30683216324541
 11
29.46305691206635
 21
87.82334145954509
 72
     1
 10
29.46305691206635
 20
87.82334145954337
 11
28.93638473086363
 21
87.82334145954337
 97
        0
 92
       16
 93
        4
 72
     1
 10
25.84097568985271
 20
87.8426224692139
 11
25.84097568985271
 21
87.32611317291421
 72
     1
 10
25.84097568985271
 20
87.32611317291413
 11
26.36764787105544
 21
87.32611317291413
 72
     1
 10
26.3676478710554
 20
87.32611317291413
 11
26.3676478710554
 21
87.84262246921379
 72
     1
 10
26.3676478710554
 20
87.8426224692139
 11
25.84097568985268
 21
87.8426224692139
 97
        0
 75
     0
 76
     1
 98
        1
 10
-1.310221215336696
 20
0.6400799863158682
450
        0
451
        0
460
0.0
461
0.0
452
        1
462
1.0
453
        2
463
0.0
 63
     5
421
      255
463
1.0
 63
     7
421
 16777215
470
LINEAR
1001
ACAD
1010
0.0
1020
0.0
1030
0.0
  0
HATCH
  5
3E1
330
1F
100
AcDbEntity
  8
20th century
100
AcDbHatch
 10
0.0
 20
0.0
 30
0.0
210
0.0
220
0.0
230
1.0
  2
SOLID
 70
     1
 71
     0
 91
        2
 92
        1
 93
        8
 72
     1
 10
35.74492333340686
 20
87.92145465121393
 11
41.83731378112701
 21
87.92145465121393
 72
     1
 10
41.83731378112679
 20
87.92145465121393
 11
41.83861360399231
 21
87.84262246921429
 72
     1
 10
41.83861360399214
 20
87.8426224692139
 11
41.31194142278942
 21
87.8426224692139
 72
     1
 10
41.31194142278945
 20
87.8426224692139
 11
41.31194142278945
 21
87.32611317291421
 72
     1
 10
41.31194142278945
 20
87.32611317291413
 11
41.83861360399219
 21
87.32611317291413
 72
     1
 10
41.83861360399214
 20
87.32611317291413
 11
41.83861360399214
 21
87.24942688391946
 72
     1
 10
41.83861360399214
 20
87.24942688392003
 11
35.74492333340647
 21
87.24942688392003
 72
     1
 10
35.74492333340686
 20
87.24942688392003
 11
35.74492333340686
 21
87.92145465121398
 97
        0
 92
       17
 93
        4
 72
     1
 10
38.22652577464123
 20
87.8426224692139
 11
38.22652577464123
 21
87.32611317291421
 72
     1
 10
38.22652577464123
 20
87.32611317291413
 11
38.75319795584396
 21
87.32611317291413
 72
     1
 10
38.75319795584392
 20
87.32611317291413
 11
38.75319795584392
 21
87.84262246921379
 72
     1
 10
38.75319795584392
 20
87.8426224692139
 11
38.22652577464119
 21
87.8426224692139
 97
        0
 75
     0
 76
     1
 98
        2
 10
-1.310221215336696
 20
0.6400799863158682
 10
-1.310221215336696
 20
0.6400799863158682
450
        0
451
        0
460
0.0
461
0.0
452
        1
462
1.0
453
        2
463
0.0
 63
     5
421
      255
463
1.0
 63
     7
421
 16777215
470
LINEAR
1001
ACAD
1010
0.0
1020
0.0
1030
0.0
  0
LWPOLYLINE
  5
3F4
330
1F
100
AcDbEntity
  8
thin outline
100
AcDbPolyline
 90
        4
 70
     1
 43
0.0
 10
42.67510827191609
 20
87.69057049542608
 10
42.57510827191618
 20
87.69057049542608
 10
42.57510827191618
 20
87.84048285498647
 10
42.67510827191609
 20
87.84048285498647
  0
LWPOLYLINE
  5
3F7
330
1F
100
AcDbEntity
  8
thin outline
100
AcDbPolyline
 90
        4
 70
     1
 43
0.0
 10
43.3535679166016
 20
87.69057049542608
 10
43.25356791660124
 20
87.69057049542608
 10
43.25356791660124
 20
87.84048285498647
 10
43.3535679166016
 20
87.84048285498647
  0
LWPOLYLINE
  5
3F8
330
1F
100
AcDbEntity
  8
thin outline
100
AcDbPolyline
 90
        4
 70
     1
 43
0.0
 10
44.02738764706373
 20
87.69057049542608
 10
43.92738764706291
 20
87.69057049542608
 10
43.92738764706291
 20
87.84048285498647
 10
44.02738764706373
 20
87.84048285498647
  0
LWPOLYLINE
  5
3FC
330
1F
100
AcDbEntity
  8
outline
100
AcDbPolyline
 90
        2
 70
     0
 43
0.0
 10
45.54817711821761
 20
87.85199925091092
 10
47.68789493742315
 20
87.85199925091092
  0
LWPOLYLINE
  5
410
330
1F
100
AcDbEntity
  8
thin outline
100
AcDbPolyline
 90
        4
 70
     1
 43
0.0
 10
45.64876795180771
 20
87.69057049542608
 10
45.5487679518078
 20
87.69057049542608
 10
45.5487679518078
 20
87.84048284721938
 10
45.64876795180771
 20
87.84048284721938
  0
LWPOLYLINE
  5
411
330
1F
100
AcDbEntity
  8
thin outline
100
AcDbPolyline
 90
        4
 70
     1
 43
0.0
 10
47.68727851558014
 20
87.69057049542608
 10
47.58786831813267
 20
87.69057049542608
 10
47.58786831813267
 20
87.84048285498647
 10
47.68786831813258
 20
87.84048285498647
  0
LWPOLYLINE
  5
41B
330
1F
100
AcDbEntity
  8
thin outline
100
AcDbPolyline
 90
        4
 70
     1
 43
0.0
 10
46.34876773226233
 20
87.69057049542608
 10
46.24876773226287
 20
87.69057049542608
 10
46.24876773226287
 20
87.84047731389183
 10
46.34876773226233
 20
87.84047731389183
  0
LWPOLYLINE
  5
41C
330
1F
100
AcDbEntity
  8
thin outline
100
AcDbPolyline
 90
        4
 70
     1
 43
0.0
 10
46.99876773226288
 20
87.69057049542608
 10
46.89876773226205
 20
87.69057049542608
 10
46.89876773226205
 20
87.84047731389183
 10
46.99876773226288
 20
87.84047731389183
  0
LWPOLYLINE
  5
432
330
1F
100
AcDbEntity
  8
hatch
100
AcDbPolyline
 90
        4
 70
     1
 43
0.0
 10
46.85898916714852
 20
87.21191926460248
 10
48.99749973092081
 20
87.21191926460248
 10
48.99749973092081
 20
87.05049050911858
 10
46.85898916714852
 20
87.05049050911858
  0
HATCH
  5
434
330
1F
100
AcDbEntity
  8
20th century
100
AcDbHatch
 10
0.0
 20
0.0
 30
0.0
210
0.0
220
0.0
230
1.0
  2
SOLID
 70
     1
 71
     0
 91
        1
 92
        1
 93
        4
 72
     1
 10
45.5487679518078
 20
87.85199925091092
 11
47.68727851557956
 21
87.85199925091092
 72
     1
 10
47.68727851558014
 20
87.85199925091092
 11
47.68727851558014
 21
87.69057049542654
 72
     1
 10
47.68727851558014
 20
87.69057049542608
 11
45.54876795180838
 21
87.69057049542608
 72
     1
 10
45.5487679518078
 20
87.69057049542608
 11
45.5487679518078
 21
87.85199925091045
 97
        0
 75
     0
 76
     1
 98
        1
 10
-1.310221215336696
 20
0.6400799863158682
450
        0
451
        0
460
0.0
461
0.0
452
        1
462
1.0
453
        2
463
0.0
 63
     5
421
      255
463
1.0
 63
     7
421
 16777215
470
LINEAR
1001
ACAD
1010
0.0
1020
0.0
1030
0.0
  0
HATCH
  5
435
330
1F
100
AcDbEntity
  8
20th century
100
AcDbHatch
 10
0.0
 20
0.0
 30
0.0
210
0.0
220
0.0
230
1.0
  2
SOLID
 70
     1
 71
     1
 91
        1
 92
        1
 93
        4
 72
     1
 10
44.02738764706373
 20
87.69057049542608
 11
44.02738764706373
 21
87.85199925091092
 72
     1
 10
44.02738764706373
 20
87.85199925091092
 11
42.57510827191618
 21
87.85199925091092
 72
     1
 10
42.57510827191618
 20
87.85199925091092
 11
42.57510827191618
 21
87.69057049542608
 72
     1
 10
42.57510827191618
 20
87.69057049542608
 11
44.02738764706373
 21
87.69057049542608
 97
        1
330
1C3
 75
     0
 76
     1
 98
        1
 10
-1.310221215336696
 20
0.6400799863158682
450
        0
451
        0
460
0.0
461
0.0
452
        1
462
1.0
453
        2
463
0.0
 63
     5
421
      255
463
1.0
 63
     7
421
 16777215
470
LINEAR
1001
ACAD
1010
0.0
1020
0.0
1030
0.0
  0
LWPOLYLINE
  5
44C
330
1F
100
AcDbEntity
  8
outline
100
AcDbPolyline
 90
        4
 70
     0
 43
0.0
 10
19.43338585167703
 20
80.62298913509403
 10
19.31295790848344
 20
80.62298913509403
 10
19.31295790848344
 20
79.6874903319831
 10
19.43338585167703
 20
79.6874903319831
  0
ARC
  5
44E
330
1F
100
AcDbEntity
  8
outline
100
AcDbCircle
 10
19.31295790848344
 20
80.15523973353811
 30
0.0
 40
0.1745276847753978
100
AcDbArc
 50
90.0
 51
270.0
  0
ARC
  5
451
330
1F
100
AcDbEntity
  8
thin outline
100
AcDbCircle
 10
19.30751603430417
 20
80.15363406313737
 30
0.0
 40
0.1406733652895232
100
AcDbArc
 50
87.7829901096679
 51
272.2170098903321
  0
LWPOLYLINE
  5
453
330
1F
100
AcDbEntity
  8
hatch
100
AcDbPolyline
 90
        8
 70
     1
 43
0.0
 10
20.66304984495195
 20
80.1157685667464
 10
20.37531445847625
 20
80.1157685667464
 10
20.37531445847625
 20
79.25007164530207
 10
20.66304984495195
 20
78.79213065502735
 10
20.66304984495195
 20
79.01684155368198
 10
20.74360706701576
 20
79.04226645775115
 10
20.74360706701576
 20
79.98290914878507
 10
20.66304984495195
 20
80.02993468316008
  0
HATCH
  5
459
330
1F
100
AcDbEntity
  8
19th century
100
AcDbHatch
 10
0.0
 20
0.0
 30
0.0
210
0.0
220
0.0
230
1.0
  2
SOLID
 70
     1
 71
     0
 91
        1
 92
        1
 93
        8
 72
     1
 10
19.35282862961367
 20
80.75584855305441
 11
19.06509324313827
 21
80.75584855305441
 72
     1
 10
19.06509324313765
 20
80.75584855305441
 11
19.06509324313765
 21
79.89015163161027
 72
     1
 10
19.06509324313765
 20
79.89015163161093
 11
19.35282862961305
 21
79.43221064133637
 72
     1
 10
19.35282862961367
 20
79.43221064133649
 11
19.35282862961367
 21
79.65692153999167
 72
     1
 10
19.35282862961367
 20
79.65692153999134
 11
19.43338585167716
 21
79.68234644406073
 72
     1
 10
19.43338585167703
 20
79.68234644405947
 11
19.43338585167703
 21
80.62298913509394
 72
     1
 10
19.43338585167703
 20
80.62298913509403
 11
19.35282862961353
 21
80.67001466946971
 72
     1
 10
19.35282862961367
 20
80.67001466946932
 11
19.35282862961367
 21
80.75584855305617
 97
        0
 75
     0
 76
     1
 98
        1
 10
-1.310221215336696
 20
0.6400799863158682
450
        0
451
        0
460
0.0
461
0.0
452
        1
462
1.0
453
        2
463
0.0
 63
     5
421
      255
463
1.0
 63
     7
421
 16777215
470
LINEAR
1001
ACAD
1010
0.0
1020
0.0
1030
0.0
  0
LWPOLYLINE
  5
475
330
1F
100
AcDbEntity
  8
thin outline
100
AcDbPolyline
 90
        5
 70
     0
 43
0.0
 10
32.11929012110613
 20
87.24967890244716
 10
31.99338933172476
 20
87.24942688392003
 10
31.99338933172476
 20
87.24942688392003
 10
31.99338933172476
 20
87.98165097709716
 10
33.41501090629618
 20
87.98165097709716
  0
LWPOLYLINE
  5
47B
330
1F
100
AcDbEntity
  8
thin outline
100
AcDbPolyline
 90
        4
 70
     0
 43
0.0
 10
35.60958777769974
 20
87.24939214290044
 10
35.74492333340686
 20
87.24939214290044
 10
35.74492333340686
 20
87.9966437846815
 10
34.51029311751518
 20
87.9966437846815
  0
LWPOLYLINE
  5
482
330
1F
100
AcDbEntity
  8
Thick outline
100
AcDbPolyline
 90
        4
 70
     0
 43
0.0
 10
34.51029311751518
 20
88.00111407227177
 10
34.51029311751518
 20
87.85549602459013
 10
35.60958777769974
 20
87.85549602459013
 10
35.60958777769974
 20
87.24939214290044
  0
LWPOLYLINE
  5
483
330
1F
100
AcDbEntity
  8
Thick outline
100
AcDbPolyline
 90
        3
 70
     0
 43
0.0
 10
33.41501090629618
 20
87.85199925091092
 10
32.11929012110613
 20
87.85199925091092
 10
32.12049579487484
 20
87.2496813158723
  0
LWPOLYLINE
  5
4A5
330
1F
100
AcDbEntity
  8
thin outline
100
AcDbPolyline
 90
        2
 70
     0
 43
0.0
 10
47.23190343046008
 20
78.38488493864497
 10
47.86738465443386
 20
78.38488493864497
  0
LWPOLYLINE
  5
4D2
330
1F
100
AcDbEntity
  8
thin outline
100
AcDbPolyline
 90
        2
 70
     1
 43
0.0
 10
37.33418226049298
 20
75.33593108142395
 10
37.33418226049298
 20
75.33593108142395
  0
LWPOLYLINE
  5
4D9
330
1F
100
AcDbEntity
  8
Thick outline
  6
Continuous
 48
0.5
100
AcDbPolyline
 90
        2
 70
     0
 43
0.0
 10
22.66601904038271
 20
75.33593108142395
 10
24.31926597822621
 20
75.3360607111681
  0
LWPOLYLINE
  5
4DA
330
1F
100
AcDbEntity
  8
Thick outline
  6
Continuous
 48
0.5
100
AcDbPolyline
 90
        2
 70
     0
 43
0.0
 10
25.14825605354099
 20
75.3360607111681
 10
25.2650174741998
 20
75.33593108142395
  0
LWPOLYLINE
  5
4DB
330
1F
100
AcDbEntity
  8
outline
  6
Continuous
 48
0.5
100
AcDbPolyline
 90
        4
 70
     0
 43
0.0
 10
24.31926597822621
 20
75.3360607111681
 10
24.31926597822621
 20
75.30570347668981
 10
25.14825605354099
 20
75.30570347668981
 10
25.14825310071592
 20
75.33606071444592
  0
LWPOLYLINE
  5
4F2
330
1F
100
AcDbEntity
  8
outline
  6
Continuous
 48
0.5
100
AcDbPolyline
 90
        2
 70
     0
 43
0.0
 10
25.56162158334519
 20
75.33593108142395
 10
26.218948747588
 20
75.33593108142395
  0
LWPOLYLINE
  5
4FE
330
1F
100
AcDbEntity
  8
thin outline
  6
Continuous
 48
0.5
100
AcDbPolyline
 90
        2
 70
     0
 43
0.0
 10
44.74797491371464
 20
75.98593108142359
 10
44.74797491371464
 20
75.26815465121399
  0
LWPOLYLINE
  5
4FF
330
1F
100
AcDbEntity
  8
hatch
  6
Continuous
 48
0.5
100
AcDbPolyline
 90
        6
 70
     1
 43
0.0
 10
40.40819612905536
 20
75.34585109511453
 10
40.40819587831835
 20
74.69101531177421
 10
40.67905429286269
 20
74.69101520806237
 10
40.72472085004721
 20
74.62807466490554
 10
46.05819612905535
 20
74.62807466490552
 10
46.05819612905535
 20
75.34585109511453
  0
HATCH
  5
501
330
1F
100
AcDbEntity
  8
late 20th century
  6
Continuous
 48
0.5
100
AcDbHatch
 10
0.0
 20
0.0
 30
0.0
210
0.0
220
0.0
230
1.0
  2
SOLID
 70
     1
 71
     0
 91
        1
 92
        1
 93
        6
 72
     1
 10
39.09797491371501
 20
75.98593108142359
 11
39.09797466297798
 21
75.33109529808268
 72
     1
 10
39.09797466297778
 20
75.3310952980828
 11
39.36883307752226
 21
75.33109519437056
 72
     1
 10
39.3688330775226
 20
75.33109519437221
 11
39.41449963470722
 21
75.26815465121547
 72
     1
 10
39.41449963470723
 20
75.26815465121399
 11
44.74797491371464
 21
75.26815465121399
 72
     1
 10
44.74797491371464
 20
75.26815465121399
 11
44.74797491371464
 21
75.98593108142245
 72
     1
 10
44.74797491371464
 20
75.98593108142359
 11
39.09797491371515
 21
75.98593108142359
 97
        0
 75
     0
 76
     1
 98
        1
 10
-1.310221215336696
 20
0.6400799863158682
450
        0
451
        0
460
0.0
461
0.0
452
        1
462
1.0
453
        2
463
0.0
 63
     5
421
      255
463
1.0
 63
     7
421
 16777215
470
LINEAR
1001
ACAD
1010
40.40819587831835
1020
74.62807466490552
1030
0.0
  0
LWPOLYLINE
  5
503
330
1F
100
AcDbEntity
  8
hatch
  6
Continuous
 48
0.5
100
AcDbPolyline
 90
        9
 70
     1
 43
0.0
 10
46.05819612905535
 20
75.34585109511453
 10
46.05819612905535
 20
74.62807466490552
 10
46.82750797967033
 20
74.62807466490552
 10
46.8270639862259
 20
74.69101285398586
 10
46.87866223694562
 20
74.69101285398586
 10
46.87866223694562
 20
74.67991198044861
 10
46.87866223694562
 20
74.66881112666834
 10
46.95872837542597
 20
74.66875672919858
 10
46.95918839786496
 20
75.34585109511453
  0
HATCH
  5
505
330
1F
100
AcDbEntity
  8
20th century
  6
Continuous
 48
0.5
100
AcDbHatch
 10
0.0
 20
0.0
 30
0.0
210
0.0
220
0.0
230
1.0
  2
SOLID
 70
     1
 71
     0
 91
        1
 92
        1
 93
        9
 72
     1
 10
44.74797491371464
 20
75.98593108142359
 11
44.74797491371464
 21
75.26815465121512
 72
     1
 10
44.74797491371464
 20
75.26815465121399
 11
45.51728676432926
 21
75.26815465121399
 72
     1
 10
45.51728676433003
 20
75.26815465121399
 11
45.51684277088571
 21
75.33109284029433
 72
     1
 10
45.51684277088543
 20
75.33109284029433
 11
45.56844102160499
 21
75.33109284029433
 72
     1
 10
45.56844102160494
 20
75.33109284029433
 11
45.56844102160494
 21
75.31999196675696
 72
     1
 10
45.56844102160494
 20
75.31999196675861
 11
45.56844102160494
 21
75.30889111297859
 72
     1
 10
45.56844102160494
 20
75.3088911129771
 11
45.64850716008503
 21
75.30883671550782
 72
     1
 10
45.64850716008504
 20
75.30883671550782
 11
45.64896718252438
 21
75.98593108142404
 72
     1
 10
45.64896718252476
 20
75.98593108142359
 11
44.74797491371545
 21
75.98593108142359
 97
        0
 75
     0
 76
     1
 98
        1
 10
-1.310221215336696
 20
0.6400799863158682
450
        0
451
        0
460
0.0
461
0.0
452
        1
462
1.0
453
        2
463
0.0
 63
     5
421
      255
463
1.0
 63
     7
421
 16777215
470
LINEAR
1001
ACAD
1010
46.05819612905535
1020
74.62807466490552
1030
0.0
  0
CIRCLE
  5
520
330
1F
100
AcDbEntity
  8
outline
100
AcDbCircle
 10
29.19450051231479
 20
83.01096854113438
 30
0.0
 40
0.2511579950810904
  0
LWPOLYLINE
  5
521
102
{ACAD_REACTORS
330
554
102
}
330
1F
100
AcDbEntity
  8
Thick outline
100
AcDbPolyline
 90
        4
 70
     1
 43
0.0
 10
28.93638473086367
 20
83.26400002833452
 10
28.93638473086367
 20
82.74749073203656
 10
29.46305691206635
 20
82.74749073203656
 10
29.46305691206635
 20
83.26400002833452
  0
CIRCLE
  5
524
330
1F
100
AcDbEntity
  8
outline
100
AcDbCircle
 10
38.48464155609145
 20
83.03024955080308
 30
0.0
 40
0.2511579950810904
  0
LWPOLYLINE
  5
525
102
{ACAD_REACTORS
330
551
102
}
330
1F
100
AcDbEntity
  8
Thick outline
100
AcDbPolyline
 90
        4
 70
     1
 43
0.0
 10
38.22652577464123
 20
83.28328103800505
 10
38.22652577464123
 20
82.76677174170528
 10
38.75319795584392
 20
82.76677174170528
 10
38.75319795584392
 20
83.28328103800505
  0
CIRCLE
  5
528
330
1F
100
AcDbEntity
  8
outline
100
AcDbCircle
 10
41.57005720424058
 20
83.03024955080308
 30
0.0
 40
0.2511579950810904
  0
LWPOLYLINE
  5
529
102
{ACAD_REACTORS
330
550
102
}
330
1F
100
AcDbEntity
  8
Thick outline
100
AcDbPolyline
 90
        4
 70
     1
 43
0.0
 10
41.31194142278945
 20
83.28328103800505
 10
41.31194142278945
 20
82.76677174170528
 10
41.83861360399214
 20
82.76677174170528
 10
41.83861360399214
 20
83.28328103800505
  0
CIRCLE
  5
52C
330
1F
100
AcDbEntity
  8
outline
100
AcDbCircle
 10
35.39922590794276
 20
83.03024955080308
 30
0.0
 40
0.2511579950810904
  0
LWPOLYLINE
  5
52D
102
{ACAD_REACTORS
330
552
102
}
330
1F
100
AcDbEntity
  8
Thick outline
100
AcDbPolyline
 90
        4
 70
     1
 43
0.0
 10
35.14111012649255
 20
83.28328103800505
 10
35.14111012649255
 20
82.76677174170528
 10
35.66778230769433
 20
82.76677174170528
 10
35.66778230769433
 20
83.28328103800505
  0
CIRCLE
  5
534
330
1F
100
AcDbEntity
  8
outline
100
AcDbCircle
 10
32.31381025979408
 20
83.03024955080308
 30
0.0
 40
0.2511579950810904
  0
LWPOLYLINE
  5
535
102
{ACAD_REACTORS
330
553
102
}
330
1F
100
AcDbEntity
  8
Thick outline
100
AcDbPolyline
 90
        4
 70
     1
 43
0.0
 10
32.05569447834296
 20
83.28328103800505
 10
32.05569447834296
 20
82.76677174170528
 10
32.58236665954564
 20
82.76677174170528
 10
32.58236665954564
 20
83.28328103800505
  0
CIRCLE
  5
53F
330
1F
100
AcDbEntity
  8
outline
100
AcDbCircle
 10
23.00368243029197
 20
83.01096854113438
 30
0.0
 40
0.2511579950810904
  0
LWPOLYLINE
  5
540
102
{ACAD_REACTORS
330
54F
102
}
330
1F
100
AcDbEntity
  8
Thick outline
100
AcDbPolyline
 90
        4
 70
     1
 43
0.0
 10
22.7455666488413
 20
83.26400002833452
 10
22.7455666488413
 20
82.74749073203656
 10
23.27223883004354
 20
82.74749073203656
 10
23.27223883004354
 20
83.26400002833452
  0
CIRCLE
  5
543
330
1F
100
AcDbEntity
  8
outline
100
AcDbCircle
 10
26.09909147130293
 20
83.01096854113438
 30
0.0
 40
0.2511579950810904
  0
LWPOLYLINE
  5
544
102
{ACAD_REACTORS
330
555
102
}
330
1F
100
AcDbEntity
  8
Thick outline
100
AcDbPolyline
 90
        4
 70
     1
 43
0.0
 10
25.84097568985271
 20
83.26400002833452
 10
25.84097568985271
 20
82.74749073203656
 10
26.3676478710554
 20
82.74749073203656
 10
26.3676478710554
 20
83.26400002833452
  0
HATCH
  5
54F
330
1F
100
AcDbEntity
  8
16th century
  6
DASHED2
 48
0.5
100
AcDbHatch
 10
0.0
 20
0.0
 30
0.0
210
0.0
220
0.0
230
1.0
  2
SOLID
 70
     1
 71
     1
 91
        1
 92
        1
 93
        4
 72
     1
 10
22.7455666488413
 20
83.26400002833452
 11
22.7455666488413
 21
82.74749073203656
 72
     1
 10
22.7455666488413
 20
82.74749073203656
 11
23.27223883004354
 21
82.74749073203656
 72
     1
 10
23.27223883004354
 20
82.74749073203656
 11
23.27223883004354
 21
83.26400002833452
 72
     1
 10
23.27223883004354
 20
83.26400002833452
 11
22.7455666488413
 21
83.26400002833452
 97
        1
330
540
 75
     0
 76
     1
 98
        1
 10
-1.310221215336696
 20
0.6400799863158682
450
        0
451
        0
460
0.0
461
0.0
452
        1
462
1.0
453
        2
463
0.0
 63
     5
421
      255
463
1.0
 63
     7
421
 16777215
470
LINEAR
1001
ACAD
1010
24.0557878641801
1020
82.10741074572714
1030
0.0
  0
HATCH
  5
550
330
1F
100
AcDbEntity
  8
16th century
  6
DASHED2
 48
0.5
100
AcDbHatch
 10
0.0
 20
0.0
 30
0.0
210
0.0
220
0.0
230
1.0
  2
SOLID
 70
     1
 71
     1
 91
        1
 92
        1
 93
        4
 72
     1
 10
41.31194142278945
 20
83.28328103800505
 11
41.31194142278945
 21
82.76677174170528
 72
     1
 10
41.31194142278945
 20
82.76677174170528
 11
41.83861360399214
 21
82.76677174170528
 72
     1
 10
41.83861360399214
 20
82.76677174170528
 11
41.83861360399214
 21
83.28328103800505
 72
     1
 10
41.83861360399214
 20
83.28328103800505
 11
41.31194142278945
 21
83.28328103800505
 97
        1
330
529
 75
     0
 76
     1
 98
        1
 10
-1.310221215336696
 20
0.6400799863158682
450
        0
451
        0
460
0.0
461
0.0
452
        1
462
1.0
453
        2
463
0.0
 63
     5
421
      255
463
1.0
 63
     7
421
 16777215
470
LINEAR
1001
ACAD
1010
24.0557878641801
1020
82.10741074572714
1030
0.0
  0
HATCH
  5
551
330
1F
100
AcDbEntity
  8
16th century
  6
DASHED2
 48
0.5
100
AcDbHatch
 10
0.0
 20
0.0
 30
0.0
210
0.0
220
0.0
230
1.0
  2
SOLID
 70
     1
 71
     1
 91
        1
 92
        1
 93
        4
 72
     1
 10
38.22652577464123
 20
83.28328103800505
 11
38.22652577464123
 21
82.76677174170528
 72
     1
 10
38.22652577464123
 20
82.76677174170528
 11
38.75319795584392
 21
82.76677174170528
 72
     1
 10
38.75319795584392
 20
82.76677174170528
 11
38.75319795584392
 21
83.28328103800505
 72
     1
 10
38.75319795584392
 20
83.28328103800505
 11
38.22652577464123
 21
83.28328103800505
 97
        1
330
525
 75
     0
 76
     1
 98
        1
 10
-1.310221215336696
 20
0.6400799863158682
450
        0
451
        0
460
0.0
461
0.0
452
        1
462
1.0
453
        2
463
0.0
 63
     5
421
      255
463
1.0
 63
     7
421
 16777215
470
LINEAR
1001
ACAD
1010
24.0557878641801
1020
82.10741074572714
1030
0.0
  0
HATCH
  5
552
330
1F
100
AcDbEntity
  8
16th century
  6
DASHED2
 48
0.5
100
AcDbHatch
 10
0.0
 20
0.0
 30
0.0
210
0.0
220
0.0
230
1.0
  2
SOLID
 70
     1
 71
     1
 91
        1
 92
        1
 93
        4
 72
     1
 10
35.14111012649255
 20
83.28328103800505
 11
35.14111012649255
 21
82.76677174170528
 72
     1
 10
35.14111012649255
 20
82.76677174170528
 11
35.66778230769433
 21
82.76677174170528
 72
     1
 10
35.66778230769433
 20
82.76677174170528
 11
35.66778230769433
 21
83.28328103800505
 72
     1
 10
35.66778230769433
 20
83.28328103800505
 11
35.14111012649255
 21
83.28328103800505
 97
        1
330
52D
 75
     0
 76
     1
 98
        1
 10
-1.310221215336696
 20
0.6400799863158682
450
        0
451
        0
460
0.0
461
0.0
452
        1
462
1.0
453
        2
463
0.0
 63
     5
421
      255
463
1.0
 63
     7
421
 16777215
470
LINEAR
1001
ACAD
1010
24.0557878641801
1020
82.10741074572714
1030
0.0
  0
HATCH
  5
553
330
1F
100
AcDbEntity
  8
16th century
  6
DASHED2
 48
0.5
100
AcDbHatch
 10
0.0
 20
0.0
 30
0.0
210
0.0
220
0.0
230
1.0
  2
SOLID
 70
     1
 71
     1
 91
        1
 92
        1
 93
        4
 72
     1
 10
32.05569447834296
 20
83.28328103800505
 11
32.05569447834296
 21
82.76677174170528
 72
     1
 10
32.05569447834296
 20
82.76677174170528
 11
32.58236665954564
 21
82.76677174170528
 72
     1
 10
32.58236665954564
 20
82.76677174170528
 11
32.58236665954564
 21
83.28328103800505
 72
     1
 10
32.58236665954564
 20
83.28328103800505
 11
32.05569447834296
 21
83.28328103800505
 97
        1
330
535
 75
     0
 76
     1
 98
        1
 10
-1.310221215336696
 20
0.6400799863158682
450
        0
451
        0
460
0.0
461
0.0
452
        1
462
1.0
453
        2
463
0.0
 63
     5
421
      255
463
1.0
 63
     7
421
 16777215
470
LINEAR
1001
ACAD
1010
24.0557878641801
1020
82.10741074572714
1030
0.0
  0
HATCH
  5
554
330
1F
100
AcDbEntity
  8
16th century
  6
DASHED2
 48
0.5
100
AcDbHatch
 10
0.0
 20
0.0
 30
0.0
210
0.0
220
0.0
230
1.0
  2
SOLID
 70
     1
 71
     1
 91
        1
 92
        1
 93
        4
 72
     1
 10
28.93638473086367
 20
83.26400002833452
 11
28.93638473086367
 21
82.74749073203656
 72
     1
 10
28.93638473086367
 20
82.74749073203656
 11
29.46305691206635
 21
82.74749073203656
 72
     1
 10
29.46305691206635
 20
82.74749073203656
 11
29.46305691206635
 21
83.26400002833452
 72
     1
 10
29.46305691206635
 20
83.26400002833452
 11
28.93638473086367
 21
83.26400002833452
 97
        1
330
521
 75
     0
 76
     1
 98
        1
 10
-1.310221215336696
 20
0.6400799863158682
450
        0
451
        0
460
0.0
461
0.0
452
        1
462
1.0
453
        2
463
0.0
 63
     5
421
      255
463
1.0
 63
     7
421
 16777215
470
LINEAR
1001
ACAD
1010
24.0557878641801
1020
82.10741074572714
1030
0.0
  0
HATCH
  5
555
330
1F
100
AcDbEntity
  8
16th century
  6
DASHED2
 48
0.5
100
AcDbHatch
 10
0.0
 20
0.0
 30
0.0
210
0.0
220
0.0
230
1.0
  2
SOLID
 70
     1
 71
     1
 91
        1
 92
        1
 93
        4
 72
     1
 10
25.84097568985271
 20
83.26400002833452
 11
25.84097568985271
 21
82.74749073203656
 72
     1
 10
25.84097568985271
 20
82.74749073203656
 11
26.3676478710554
 21
82.74749073203656
 72
     1
 10
26.3676478710554
 20
82.74749073203656
 11
26.3676478710554
 21
83.26400002833452
 72
     1
 10
26.3676478710554
 20
83.26400002833452
 11
25.84097568985271
 21
83.26400002833452
 97
        1
330
544
 75
     0
 76
     1
 98
        1
 10
-1.310221215336696
 20
0.6400799863158682
450
        0
451
        0
460
0.0
461
0.0
452
        1
462
1.0
453
        2
463
0.0
 63
     5
421
      255
463
1.0
 63
     7
421
 16777215
470
LINEAR
1001
ACAD
1010
24.0557878641801
1020
82.10741074572714
1030
0.0
  0
LWPOLYLINE
  5
55F
330
1F
100
AcDbEntity
  8
Thick outline
 48
0.5
100
AcDbPolyline
 90
        4
 70
     0
 43
0.0
 10
20.43338585167749
 20
78.34898463282661
 10
23.38483383368612
 20
78.34898463282661
 10
23.38483383368612
 20
79.3489846328257
 10
20.43338585167749
 20
79.3489846328257
  0
HATCH
  5
562
330
1F
100
AcDbEntity
  8
16th century
  6
DASHED2
 48
0.5
100
AcDbHatch
 10
0.0
 20
0.0
 30
0.0
210
0.0
220
0.0
230
1.0
  2
SOLID
 70
     1
 71
     0
 91
        1
 92
        1
 93
        4
 72
     1
 10
20.43338585167749
 20
79.3489846328257
 11
23.38483383368589
 21
79.3489846328257
 72
     1
 10
23.38483383368612
 20
79.3489846328257
 11
23.38483383368612
 21
78.34898463282527
 72
     1
 10
23.38483383368612
 20
78.34898463282661
 11
20.43338585167771
 21
78.34898463282661
 72
     1
 10
20.43338585167749
 20
78.34898463282661
 11
20.43338585167749
 21
79.34898463282704
 97
        0
 75
     0
 76
     1
 98
        1
 10
-1.310221215336696
 20
0.6400799863158682
450
        0
451
        0
460
0.0
461
0.0
452
        1
462
1.0
453
        2
463
0.0
 63
     5
421
      255
463
1.0
 63
     7
421
 16777215
470
LINEAR
1001
ACAD
1010
21.74360706701576
1020
77.70890464651731
1030
0.0
  0
HATCH
  5
567
330
1F
100
AcDbEntity
  8
16th century
  6
DASHED2
 48
0.5
100
AcDbHatch
 10
0.0
 20
0.0
 30
0.0
210
0.0
220
0.0
230
1.0
  2
SOLID
 70
     1
 71
     1
 91
        1
 92
        1
 93
        4
 72
     1
 10
41.31194142278945
 20
79.10201612002675
 11
41.31194142278945
 21
78.58550682372788
 72
     1
 10
41.31194142278945
 20
78.58550682372788
 11
41.83861360399214
 21
78.58550682372788
 72
     1
 10
41.83861360399214
 20
78.58550682372788
 11
41.83861360399214
 21
79.10201612002675
 72
     1
 10
41.83861360399214
 20
79.10201612002675
 11
41.31194142278945
 21
79.10201612002675
 97
        1
330
571
 75
     0
 76
     1
 98
        1
 10
-1.310221215336696
 20
-3.541184931661518
450
        0
451
        0
460
0.0
461
0.0
452
        1
462
1.0
453
        2
463
0.0
 63
     5
421
      255
463
1.0
 63
     7
421
 16777215
470
LINEAR
1001
ACAD
1010
24.0557878641801
1020
82.10741074572714
1030
0.0
  0
HATCH
  5
568
330
1F
100
AcDbEntity
  8
16th century
  6
DASHED2
 48
0.5
100
AcDbHatch
 10
0.0
 20
0.0
 30
0.0
210
0.0
220
0.0
230
1.0
  2
SOLID
 70
     1
 71
     1
 91
        1
 92
        1
 93
        4
 72
     1
 10
38.22652577464123
 20
79.10201612002675
 11
38.22652577464123
 21
78.58550682372788
 72
     1
 10
38.22652577464123
 20
78.58550682372788
 11
38.75319795584392
 21
78.58550682372788
 72
     1
 10
38.75319795584392
 20
78.58550682372788
 11
38.75319795584392
 21
79.10201612002675
 72
     1
 10
38.75319795584392
 20
79.10201612002675
 11
38.22652577464123
 21
79.10201612002675
 97
        1
330
56D
 75
     0
 76
     1
 98
        1
 10
-1.310221215336696
 20
-3.541184931661518
450
        0
451
        0
460
0.0
461
0.0
452
        1
462
1.0
453
        2
463
0.0
 63
     5
421
      255
463
1.0
 63
     7
421
 16777215
470
LINEAR
1001
ACAD
1010
24.0557878641801
1020
82.10741074572714
1030
0.0
  0
CIRCLE
  5
56C
330
1F
100
AcDbEntity
  8
outline
100
AcDbCircle
 10
38.48464155609145
 20
78.84898463282571
 30
0.0
 40
0.2511579950810904
  0
LWPOLYLINE
  5
56D
102
{ACAD_REACTORS
330
568
102
}
330
1F
100
AcDbEntity
  8
Thick outline
100
AcDbPolyline
 90
        4
 70
     1
 43
0.0
 10
38.22652577464123
 20
79.10201612002675
 10
38.22652577464123
 20
78.58550682372788
 10
38.75319795584392
 20
78.58550682372788
 10
38.75319795584392
 20
79.10201612002675
  0
CIRCLE
  5
570
330
1F
100
AcDbEntity
  8
outline
100
AcDbCircle
 10
41.57005720424058
 20
78.84898463282571
 30
0.0
 40
0.2511579950810904
  0
LWPOLYLINE
  5
571
102
{ACAD_REACTORS
330
567
102
}
330
1F
100
AcDbEntity
  8
Thick outline
100
AcDbPolyline
 90
        4
 70
     1
 43
0.0
 10
41.31194142278945
 20
79.10201612002675
 10
41.31194142278945
 20
78.58550682372788
 10
41.83861360399214
 20
78.58550682372788
 10
41.83861360399214
 20
79.10201612002675
  0
MTEXT
  5
5C6
330
1F
100
AcDbEntity
  8
20th century
100
AcDbMText
 10
17.64948603084849
 20
74.30771772807111
 30
0.0
 40
0.2499999999999787
 41
2.886179872602769
 71
     1
 72
     5
  1
\pt0.003898;{\fTimes New Roman|b0|i0|c0|p18;\C7;Phase I (1580's)}
 73
     1
 44
1.0
1001
ACAD
1000
ACAD_MTEXT_DEFINED_HEIGHT_BEGIN
1070
    46
1040
0.0
1000
ACAD_MTEXT_DEFINED_HEIGHT_END
  0
MTEXT
  5
5C7
330
1F
100
AcDbEntity
  8
20th century
100
AcDbMText
 10
17.64948603084849
 20
73.58476553160108
 30
0.0
 40
0.2499999999999787
 41
2.745037499360358
 71
     1
 72
     5
  1
\pt0.003899;{\fTimes New Roman|b0|i0|c0|p18;\C7;Phase II (1780's)}
 73
     1
 44
1.0
1001
ACAD
1000
ACAD_MTEXT_DEFINED_HEIGHT_BEGIN
1070
    46
1040
0.0
1000
ACAD_MTEXT_DEFINED_HEIGHT_END
  0
MTEXT
  5
5C8
330
1F
100
AcDbEntity
  8
20th century
100
AcDbMText
 10
17.64948603084849
 20
72.89372234459733
 30
0.0
 40
0.2499999999999787
 41
3.371950533456432
 71
     1
 72
     5
  1
\pt0.003899;{\fTimes New Roman|b0|i0|c0|p18;\C7;Phase III (19th C)}
 73
     1
 44
1.0
1001
ACAD
1000
ACAD_MTEXT_DEFINED_HEIGHT_BEGIN
1070
    46
1040
0.0
1000
ACAD_MTEXT_DEFINED_HEIGHT_END
  0
MTEXT
  5
5C9
330
1F
100
AcDbEntity
  8
20th century
100
AcDbMText
 10
17.64948603084849
 20
72.19517081753747
 30
0.0
 40
0.2499999999999787
 41
2.745037499360358
 71
     1
 72
     5
  1
\pt0.003899;{\fTimes New Roman|b0|i0|c0|p18;\C7;Phase IV (20th C)}
 73
     1
 44
1.0
1001
ACAD
1000
ACAD_MTEXT_DEFINED_HEIGHT_BEGIN
1070
    46
1040
0.0
1000
ACAD_MTEXT_DEFINED_HEIGHT_END
  0
HATCH
  5
5CA
330
1F
100
AcDbEntity
  8
16th century
100
AcDbHatch
 10
0.0
 20
0.0
 30
0.0
210
0.0
220
0.0
230
1.0
  2
SOLID
 70
     1
 71
     0
 91
        1
 92
        1
 93
        4
 72
     1
 10
16.80631082997388
 20
74.45634717454595
 11
17.55631082997384
 21
74.45634717454595
 72
     1
 10
17.55631082997297
 20
74.45634717454595
 11
17.55631082997297
 21
73.84446802171942
 72
     1
 10
17.55631082997297
 20
73.84446802171897
 11
16.80631082997301
 21
73.84446802171897
 72
     1
 10
16.80631082997388
 20
73.84446802171897
 11
16.80631082997388
 21
74.4563471745455
 97
        0
 75
     0
 76
     1
 98
        1
 10
-1522.504488389661
 20
-176.9900662796663
450
        0
451
        0
460
0.0
461
0.0
452
        1
462
1.0
453
        2
463
0.0
 63
     5
421
      255
463
1.0
 63
     7
421
 16777215
470
LINEAR
1001
ACAD
1010
0.0
1020
0.0
1030
0.0
  0
LWPOLYLINE
  5
5CB
330
1F
100
AcDbEntity
  8
outline
100
AcDbPolyline
 90
        4
 70
     1
 43
0.0
 10
16.80631082997388
 20
74.45634717454595
 10
17.55631082997297
 20
74.45634717454595
 10
17.55631082997297
 20
73.84446802171897
 10
16.80631082997388
 20
73.84446802171897
  0
HATCH
  5
5CC
330
1F
100
AcDbEntity
  8
1780
100
AcDbHatch
 10
0.0
 20
0.0
 30
0.0
210
0.0
220
0.0
230
1.0
  2
SOLID
 70
     1
 71
     0
 91
        1
 92
        1
 93
        4
 72
     1
 10
16.80631082997388
 20
73.74080255909666
 11
17.55631082997384
 21
73.74080255909666
 72
     1
 10
17.55631082997297
 20
73.74080255909666
 11
17.55631082997297
 21
73.12892340627013
 72
     1
 10
17.55631082997297
 20
73.1289234062724
 11
16.80631082997301
 21
73.1289234062724
 72
     1
 10
16.80631082997388
 20
73.1289234062724
 11
16.80631082997388
 21
73.74080255909894
 97
        0
 75
     0
 76
     1
 98
        1
 10
-1522.504488389355
 20
-176.517589875908
450
        0
451
        0
460
0.0
461
0.0
452
        1
462
1.0
453
        2
463
0.0
 63
     5
421
      255
463
1.0
 63
     7
421
 16777215
470
LINEAR
1001
ACAD
1010
0.0
1020
0.0
1030
0.0
  0
LWPOLYLINE
  5
5CD
330
1F
100
AcDbEntity
  8
outline
100
AcDbPolyline
 90
        4
 70
     1
 43
0.0
 10
16.80631082997388
 20
73.74080255909666
 10
17.55631082997297
 20
73.74080255909666
 10
17.55631082997297
 20
73.1289234062724
 10
16.80631082997388
 20
73.1289234062724
  0
HATCH
  5
5CE
330
1F
100
AcDbEntity
  8
19th century
100
AcDbHatch
 10
0.0
 20
0.0
 30
0.0
210
0.0
220
0.0
230
1.0
  2
SOLID
 70
     1
 71
     0
 91
        1
 92
        1
 93
        4
 72
     1
 10
16.80631082997388
 20
73.01659932073562
 11
17.55631082997384
 21
73.01659932073562
 72
     1
 10
17.55631082997297
 20
73.01659932073562
 11
17.55631082997297
 21
72.40472016790909
 72
     1
 10
17.55631082997297
 20
72.40472016791045
 11
16.80631082997301
 21
72.40472016791045
 72
     1
 10
16.80631082997388
 20
72.40472016791045
 11
16.80631082997388
 21
73.01659932073699
 97
        0
 75
     0
 76
     1
 98
        1
 10
-1522.504488389355
 20
-176.0519666435821
450
        0
451
        0
460
0.0
461
0.0
452
        1
462
1.0
453
        2
463
0.0
 63
     5
421
      255
463
1.0
 63
     7
421
 16777215
470
LINEAR
1001
ACAD
1010
0.0
1020
0.0
1030
0.0
  0
LWPOLYLINE
  5
5CF
330
1F
100
AcDbEntity
  8
outline
100
AcDbPolyline
 90
        4
 70
     1
 43
0.0
 10
16.80631082997388
 20
73.01659932073562
 10
17.55631082997297
 20
73.01659932073562
 10
17.55631082997297
 20
72.40472016791045
 10
16.80631082997388
 20
72.40472016791045
  0
HATCH
  5
5D0
330
1F
100
AcDbEntity
  8
20th century
100
AcDbHatch
 10
0.0
 20
0.0
 30
0.0
210
0.0
220
0.0
230
1.0
  2
SOLID
 70
     1
 71
     0
 91
        1
 92
        1
 93
        4
 72
     1
 10
16.80631082997388
 20
72.30611469815176
 11
17.55631082997384
 21
72.30611469815176
 72
     1
 10
17.55631082997297
 20
72.30611469815176
 11
17.55631082997297
 21
71.69423554532523
 72
     1
 10
17.55631082997297
 20
71.69423554532477
 11
16.80631082997301
 21
71.69423554532477
 72
     1
 10
16.80631082997388
 20
71.69423554532477
 11
16.80631082997388
 21
72.3061146981513
 97
        0
 75
     0
 76
     1
 98
        1
 10
-1522.504488389355
 20
-175.6362926187103
450
        0
451
        0
460
0.0
461
0.0
452
        1
462
1.0
453
        2
463
0.0
 63
     5
421
      255
463
1.0
 63
     7
421
 16777215
470
LINEAR
1001
ACAD
1010
0.0
1020
0.0
1030
0.0
  0
LWPOLYLINE
  5
5D1
330
1F
100
AcDbEntity
  8
outline
100
AcDbPolyline
 90
        4
 70
     1
 43
0.0
 10
16.80631082997388
 20
72.30611469815176
 10
17.55631082997297
 20
72.30611469815176
 10
17.55631082997297
 20
71.69423554532477
 10
16.80631082997388
 20
71.69423554532477
  0
LWPOLYLINE
  5
5D2
330
1F
100
AcDbEntity
  8
outline
100
AcDbPolyline
 90
        4
 70
     1
 43
0.0
 10
13.26956083798541
 20
65.31184350460626
 10
13.26956083798541
 20
95.01184350460334
 10
55.26956083798177
 20
95.01184350460334
 10
55.26956083798177
 20
65.31184350460626
  0
LWPOLYLINE
  5
5D3
330
1F
100
AcDbEntity
  8
outline
100
AcDbPolyline
 90
        4
 70
     1
 43
0.0
 10
15.90886784877875
 20
92.26944937110056
 10
52.63822673493405
 20
92.26944937110056
 10
52.63822673493405
 20
69.80202116039709
 10
15.90886784877875
 20
69.81208163826249
  0
MTEXT
  5
5D4
330
1F
100
AcDbEntity
  8
outline
100
AcDbMText
 10
15.79181638967338
 20
68.48219769694697
 30
0.0
 40
0.2999999999999745
 41
11.11642309335584
 71
     1
 72
     5
  1
{\fTimes New Roman|b0|i0|c238|p18;\H1.667x;Denbigh County Hall\P\H0.7x;Hall Square\PDenbigh}
 73
     1
 44
1.0
1001
ACAD
1000
ACAD_MTEXT_DEFINED_HEIGHT_BEGIN
1070
    46
1040
0.0
1000
ACAD_MTEXT_DEFINED_HEIGHT_END
  0
MTEXT
  5
5D5
330
1F
100
AcDbEntity
  8
outline
100
AcDbMText
 10
29.01334288253702
 20
68.48219769694697
 30
0.0
 40
0.3500000000000295
 41
13.22152649286352
 71
     1
 72
     5
  1
{\fTimes New Roman|b0|i0|c238|p18;NPRN: 23423\PGrid ref: SJ05294 66111\PSurveyed: SF/LB/DJP August & September 2005\PPrint Scale: 1:100 at A3}
 73
     1
 44
1.0
1001
ACAD
1000
ACAD_MTEXT_DEFINED_HEIGHT_BEGIN
1070
    46
1040
0.0
1000
ACAD_MTEXT_DEFINED_HEIGHT_END
  0
INSERT
  5
5D6
330
1F
100
AcDbEntity
  8
thin line
100
AcDbBlockReference
  2
A$C77EC45A0
 10
41.20340304318915
 20
71.18077914517835
 30
0.0
 41
99.99999999999136
 42
99.99999999999182
 43
99.99999999999147
  0
INSERT
  5
5D7
330
1F
100
AcDbEntity
  8
outline
100
AcDbBlockReference
  2
Logos block for Autocad drawings
 10
-431.9195074264748
 20
-235.3221004166917
 30
0.0
 41
0.0294572838497516
 42
0.0294572838483873
 43
0.0294572838492355
  0
MTEXT
  5
5D8
330
1F
100
AcDbEntity
  8
20th century
100
AcDbMText
 10
17.64948603084849
 20
71.46416213222256
 30
0.0
 40
0.2499999999999787
 41
3.399901261958925
 71
     1
 72
     5
  1
\pt0.003899;{\fTimes New Roman|b0|i0|c0|p18;\C7;Phase V (Late 20th C)}
 73
     1
 44
1.0
1001
ACAD
1000
ACAD_MTEXT_DEFINED_HEIGHT_BEGIN
1070
    46
1040
0.0
1000
ACAD_MTEXT_DEFINED_HEIGHT_END
  0
HATCH
  5
5D9
330
1F
100
AcDbEntity
  8
late 20th century
100
AcDbHatch
 10
0.0
 20
0.0
 30
0.0
210
0.0
220
0.0
230
1.0
  2
SOLID
 70
     1
 71
     1
 91
        1
 92
        1
 93
        4
 72
     1
 10
16.80631082997388
 20
71.57510601283593
 11
17.55631082997297
 21
71.57510601283593
 72
     1
 10
17.55631082997297
 20
71.57510601283593
 11
17.55631082997297
 21
70.96322686000985
 72
     1
 10
17.55631082997297
 20
70.96322686000985
 11
16.80631082997388
 21
70.96322686000985
 72
     1
 10
16.80631082997388
 20
70.96322686000985
 11
16.80631082997388
 21
71.57510601283593
 97
        1
330
5DA
 75
     0
 76
     1
 98
        1
 10
-1144.159598836267
 20
-113.1407395623319
450
        0
451
        0
460
0.0
461
0.0
452
        1
462
1.0
453
        2
463
0.0
 63
     5
421
      255
463
1.0
 63
     7
421
 16777215
470
LINEAR
1001
ACAD
1010
11.60965909666339
1020
1.841039664223571
1030
0.0
  0
LWPOLYLINE
  5
5DA
102
{ACAD_REACTORS
330
5D9
102
}
330
1F
100
AcDbEntity
  8
outline
100
AcDbPolyline
 90
        4
 70
     1
 43
0.0
 10
16.80631082997388
 20
71.57510601283593
 10
17.55631082997297
 20
71.57510601283593
 10
17.55631082997297
 20
70.96322686000985
 10
16.80631082997388
 20
70.96322686000985
  0
LWPOLYLINE
  5
5E1
330
1F
100
AcDbEntity
  8
hatch
 48
0.008
100
AcDbPolyline
 90
        8
 70
     1
 43
0.0
 10
34.87079339529342
 20
80.36445757161105
 10
34.87079339529342
 20
80.36575408887292
 10
34.86938335533277
 20
80.36575408887292
 10
34.86938335533277
 20
80.38254130233363
 10
34.88320852323591
 20
80.38254130233363
 10
34.88320852323591
 20
80.36590401694876
 10
34.88174621740561
 20
80.36590401694876
 10
34.88174621740561
 20
80.36445757161105
  0
HATCH
  5
5E3
330
1F
100
AcDbEntity
  8
19th century
 48
0.008
100
AcDbHatch
 10
0.0
 20
0.0
 30
0.0
210
0.0
220
0.0
230
1.0
  2
SOLID
 70
     1
 71
     0
 91
        1
 92
        1
 93
        8
 72
     1
 10
33.41501090629618
 20
87.85199925091092
 11
33.41501090629618
 21
87.98165097709725
 72
     1
 10
33.41501090629618
 20
87.98165097709716
 11
33.27400691023156
 21
87.98165097709716
 72
     1
 10
33.27400691023195
 20
87.98165097709716
 11
33.27400691023195
 21
89.66037232316867
 72
     1
 10
33.27400691023195
 20
89.6603723231683
 11
34.65652370054538
 21
89.6603723231683
 72
     1
 10
34.65652370054522
 20
89.6603723231683
 11
34.65652370054522
 21
87.99664378468103
 72
     1
 10
34.65652370054522
 20
87.9966437846815
 11
34.51029311751508
 21
87.9966437846815
 72
     1
 10
34.51029311751518
 20
87.9966437846815
 11
34.51029311751518
 21
87.85199925091093
 72
     1
 10
34.51029311751518
 20
87.85199925091092
 11
33.4150109062965
 21
87.85199925091092
 97
        0
 75
     0
 76
     1
 98
        1
 10
-3453.664328622748
 20
-7948.59375790951
450
        0
451
        0
460
0.0
461
0.0
452
        1
462
1.0
453
        2
463
0.0
 63
     5
421
      255
463
1.0
 63
     7
421
 16777215
470
LINEAR
1001
ACAD
1010
34.86938335533277
1020
80.36445757161105
1030
0.0
  0
MTEXT
  5
5E7
330
1F
100
AcDbEntity
  8
outline
 48
0.008
100
AcDbMText
 10
45.10577440221005
 20
88.92300607082598
 30
0.0
 40
0.2999999999999745
 41
2.943205200979297
 71
     1
 72
     5
  1
{\fTimes New Roman|b0|i0|c238|p18;Doorway below}
 73
     1
 44
1.0
  0
LWPOLYLINE
  5
60C
330
1F
100
AcDbEntity
  8
thin outline
  6
Continuous
 48
0.005
100
AcDbPolyline
 90
        2
 70
     0
 43
0.0
 10
42.57510827191618
 20
86.85199925091001
 10
44.02738764706373
 20
86.85199925091001
  0
LWPOLYLINE
  5
60F
330
1F
100
AcDbEntity
  8
thin outline
  6
Continuous
 48
0.005
100
AcDbPolyline
 90
        2
 70
     0
 43
0.0
 10
42.57510827191618
 20
87.9966437846815
 10
44.02738764706373
 20
87.9966437846815
  0
LWPOLYLINE
  5
612
330
1F
100
AcDbEntity
  8
thin outline
  6
Continuous
 48
0.005
100
AcDbPolyline
 90
        2
 70
     0
 43
0.0
 10
45.54809510204814
 20
87.9966437846815
 10
47.68369726006994
 20
87.9966437846815
  0
LWPOLYLINE
  5
613
330
1F
100
AcDbEntity
  8
thin outline
  6
Continuous
 48
0.005
100
AcDbPolyline
 90
        2
 70
     0
 43
0.0
 10
45.5487679518078
 20
86.85199925091001
 10
47.68397931155141
 20
86.85199925091001
  0
LWPOLYLINE
  5
616
330
1F
100
AcDbEntity
  8
thin outline
  6
DASHED
 48
0.005
100
AcDbPolyline
 90
        2
 70
     0
 43
0.0
 10
47.05872681285109
 20
87.9966437846815
 10
47.05872681285109
 20
86.85199925091001
  0
LWPOLYLINE
  5
617
330
1F
100
AcDbEntity
  8
thin outline
  6
DASHED
 48
0.005
100
AcDbPolyline
 90
        2
 70
     0
 43
0.0
 10
45.86480213384629
 20
87.9966437846815
 10
45.86480213384629
 20
86.85172533905552
  0
LWPOLYLINE
  5
61A
330
1F
100
AcDbEntity
  8
thin outline
  6
Continuous
 48
0.005
100
AcDbPolyline
 90
        2
 70
     0
 43
0.0
 10
48.08164677104787
 20
83.41092509668852
 10
48.08164677104787
 20
82.66577329765278
  0
LWPOLYLINE
  5
61B
330
1F
100
AcDbEntity
  8
thin outline
  6
Continuous
 48
0.005
100
AcDbPolyline
 90
        2
 70
     0
 43
0.0
 10
49.24761481685891
 20
83.46336166670971
 10
49.24761515353612
 20
82.61057682963565
  0
LWPOLYLINE
  5
61D
330
1F
100
AcDbEntity
  8
thin outline
  6
Continuous
 48
0.005
100
AcDbPolyline
 90
        2
 70
     0
 43
0.0
 10
49.08169694720664
 20
83.4633572225921
 10
49.08170297777497
 20
82.61057684237949
  0
LWPOLYLINE
  5
61E
330
1F
100
AcDbEntity
  8
thin outline
  6
Continuous
 48
0.005
100
AcDbPolyline
 90
        2
 70
     0
 43
0.0
 10
49.01054772692714
 20
83.41092509668852
 10
49.01054772692714
 20
82.66577329765278
  0
LWPOLYLINE
  5
622
330
1F
100
AcDbEntity
  8
thin outline
  6
Continuous
 48
0.005
100
AcDbPolyline
 90
        2
 70
     0
 43
0.0
 10
47.86974930882616
 20
77.94156933051272
 10
47.88011324885246
 20
76.84803905608532
  0
LWPOLYLINE
  5
623
330
1F
100
AcDbEntity
  8
thin outline
  6
DASHED
 48
0.005
100
AcDbPolyline
 90
        2
 70
     0
 43
0.0
 10
47.22905027638126
 20
77.94156933051272
 10
47.22888428097394
 20
76.84703193161931
  0
LWPOLYLINE
  5
624
330
1F
100
AcDbEntity
  8
thin outline
  6
Continuous
 48
0.005
100
AcDbPolyline
 90
        2
 70
     0
 43
0.0
 10
46.29536807338399
 20
75.98593108142359
 10
45.64896718252476
 20
75.98593108142359
  0
LWPOLYLINE
  5
625
330
1F
100
AcDbEntity
  8
thin outline
  6
DASHED
 48
0.005
100
AcDbPolyline
 90
        2
 70
     0
 43
0.0
 10
39.09797491371501
 20
75.98593108142359
 10
37.62600336232981
 20
75.98593108142359
  0
LWPOLYLINE
  5
626
330
1F
100
AcDbEntity
  8
thin outline
  6
Continuous
 48
0.005
100
AcDbPolyline
 90
        2
 70
     0
 43
0.0
 10
39.09797491371501
 20
75.3310952980828
 10
37.62600336232981
 20
75.31115859304191
  0
LWPOLYLINE
  5
628
330
1F
100
AcDbEntity
  8
thin outline
  6
Continuous
 48
0.005
100
AcDbPolyline
 90
        2
 70
     0
 43
0.0
 10
26.218948747588
 20
75.98593108142359
 10
25.56162158334519
 20
75.98593108142359
  0
LWPOLYLINE
  5
629
330
1F
100
AcDbEntity
  8
thin outline
  6
Continuous
 48
0.005
100
AcDbPolyline
 90
        2
 70
     0
 43
0.0
 10
25.04804075483708
 20
75.98593108142359
 10
24.41340518862808
 20
75.98593108142359
  0
LWPOLYLINE
  5
62A
330
1F
100
AcDbEntity
  8
thin outline
  6
DASHED
 48
0.005
100
AcDbPolyline
 90
        2
 70
     0
 43
0.0
 10
20.43338585167749
 20
81.96948565016009
 10
20.43338585167749
 20
84.0910134514479
  0
LWPOLYLINE
  5
62B
330
1F
100
AcDbEntity
  8
thin outline
  6
Continuous
 48
0.005
100
AcDbPolyline
 90
        2
 70
     0
 43
0.0
 10
19.36749385315079
 20
81.96948565016009
 10
19.36861408826962
 20
84.0910134514479
  0
ARC
  5
62F
330
1F
100
AcDbEntity
  8
thin outline
  6
Continuous
 48
0.005
100
AcDbCircle
 10
22.3856972153385
 20
78.22614438936216
 30
0.0
 40
2.582225852738026
100
AcDbArc
 50
187.1579537436167
 51
208.4608326519919
  0
ARC
  5
630
330
1F
100
AcDbEntity
  8
thin outline
  6
Continuous
 48
0.005
100
AcDbCircle
 10
22.32834490606274
 20
78.21289200095543
 30
0.0
 40
2.523676347067952
100
AcDbArc
 50
249.3238807403356
 51
267.7444048604292
  0
ARC
  5
631
330
1F
100
AcDbEntity
  8
thin outline
  6
Continuous
 48
0.005
100
AcDbCircle
 10
22.29666002123849
 20
78.16980540941222
 30
0.0
 40
2.470512277939198
100
AcDbArc
 50
218.4465538077787
 51
239.9934944309202
  0
ARC
  5
632
330
1F
100
AcDbEntity
  8
Thick outline
  6
Continuous
 48
0.005
100
AcDbCircle
 10
22.51808880047838
 20
79.12365630901968
 30
0.0
 40
3.637046118590733
100
AcDbArc
 50
251.6168681069043
 51
265.3508862080209
  0
LWPOLYLINE
  5
648
330
1F
100
AcDbEntity
  8
Thick outline
  6
Continuous
 48
0.005
100
AcDbPolyline
 90
        2
 70
     0
 43
0.0
 10
48.76983274463509
 20
77.38150266434513
 10
49.47244443699173
 20
77.38150266434513
  0
LWPOLYLINE
  5
650
330
1F
100
AcDbEntity
  8
Thick outline
  6
Continuous
 48
0.005
100
AcDbPolyline
 90
        2
 70
     0
 43
0.0
 10
48.76983274463509
 20
77.38150266434513
 10
48.8926658381315
 20
77.48953746196185
  0
LWPOLYLINE
  5
651
330
1F
100
AcDbEntity
  8
Thick outline
  6
Continuous
 48
0.005
100
AcDbPolyline
 90
        2
 70
     0
 43
0.0
 10
48.76983274463509
 20
77.38150266434513
 10
48.8926658381315
 20
77.27346786672751
  0
LWPOLYLINE
  5
66C
330
1F
100
AcDbEntity
  8
thin line
  6
DASHED
 48
0.005
100
AcDbPolyline
 90
        2
 70
     0
 43
0.0
 10
41.84000414794946
 20
86.85199925091001
 10
35.60958777769974
 20
86.85199925091001
  0
LWPOLYLINE
  5
66D
330
1F
100
AcDbEntity
  8
thin line
  6
DASHED
 48
0.005
100
AcDbPolyline
 90
        2
 70
     0
 43
0.0
 10
32.11929012110613
 20
86.85199925091001
 10
23.38483383529319
 20
86.85188077885413
  0
LWPOLYLINE
  5
673
330
1F
100
AcDbEntity
  8
thin line
  6
DASHED
 62
   253
 48
0.005
100
AcDbPolyline
 90
        4
 70
     1
 43
0.0
 10
32.11929012110613
 20
79.33575879144882
 10
35.60958777769974
 20
79.33575879144882
 10
35.60958777769974
 20
78.33575879144792
 10
32.11929012110613
 20
78.33575879144792
  0
LWPOLYLINE
  5
675
330
1F
100
AcDbEntity
  8
thin line
  6
DASHED
 62
   253
 48
0.005
100
AcDbPolyline
 90
        4
 70
     1
 43
0.0
 10
28.93638473086367
 20
79.10723928097559
 10
29.46305691206635
 20
79.10723928097559
 10
29.46305691206635
 20
78.59072998467673
 10
28.93638473086367
 20
78.59072998467673
  0
LWPOLYLINE
  5
676
330
1F
100
AcDbEntity
  8
thin line
  6
DASHED
 62
   253
 48
0.005
100
AcDbPolyline
 90
        4
 70
     1
 43
0.0
 10
25.84097568985271
 20
79.10723928097559
 10
26.3676478710554
 20
79.10723928097559
 10
26.3676478710554
 20
78.59072998467673
 10
25.84097568985271
 20
78.59072998467673
  0
LWPOLYLINE
  5
679
330
1F
100
AcDbEntity
  8
thin line
  6
DASHED
 62
   253
 48
0.005
100
AcDbPolyline
 90
        2
 70
     0
 43
0.0
 10
44.51738764706351
 20
79.38859020123072
 10
44.51738764706351
 20
78.38488493864497
  0
LWPOLYLINE
  5
67B
330
1F
100
AcDbEntity
  8
thin line
  6
DASHED
 62
   253
 48
0.005
100
AcDbPolyline
 90
        2
 70
     0
 43
0.0
 10
47.19778795114689
 20
79.38859020123072
 10
44.51738764706351
 20
79.38859020123072
  0
LWPOLYLINE
  5
67C
330
1F
100
AcDbEntity
  8
thin line
  6
DASHED
 62
   253
 48
0.005
100
AcDbPolyline
 90
        2
 70
     0
 43
0.0
 10
47.19778795114689
 20
78.38488493864497
 10
44.51738764706351
 20
78.38488493864497
  0
LWPOLYLINE
  5
683
330
1F
100
AcDbEntity
  8
thin line
  6
DASHED
 62
   253
 48
0.005
100
AcDbPolyline
 90
        4
 70
     1
 43
0.0
 10
44.39735707093814
 20
83.28328103800505
 10
44.92402925214082
 20
83.28328103800505
 10
44.92402925214082
 20
82.76677174170528
 10
44.39735707093814
 20
82.76677174170528
  0
LWPOLYLINE
  5
68F
330
1F
100
AcDbEntity
  8
thin line
  6
Continuous
 48
0.005
100
AcDbPolyline
 90
        2
 70
     0
 43
0.0
 10
23.4612777670668
 20
87.60962240731714
 10
25.84097568985271
 20
87.60962240731714
  0
LWPOLYLINE
  5
690
330
1F
100
AcDbEntity
  8
thin line
  6
Continuous
 48
0.005
100
AcDbPolyline
 90
        2
 70
     0
 43
0.0
 10
23.46127485048782
 20
87.54430000865159
 10
25.84097568985271
 20
87.54430000865159
  0
LWPOLYLINE
  5
698
330
1F
100
AcDbEntity
  8
thin line
  6
Continuous
 48
0.005
100
AcDbPolyline
 90
        2
 70
     0
 43
0.0
 10
26.3676478710554
 20
87.60962240731714
 10
28.93638473086367
 20
87.60962240731714
  0
LWPOLYLINE
  5
699
330
1F
100
AcDbEntity
  8
thin line
  6
Continuous
 48
0.005
100
AcDbPolyline
 90
        2
 70
     0
 43
0.0
 10
26.3676478710554
 20
87.54430000865159
 10
28.93638473086367
 20
87.54430000865159
  0
LWPOLYLINE
  5
69A
330
1F
100
AcDbEntity
  8
thin line
  6
Continuous
 48
0.005
100
AcDbPolyline
 90
        2
 70
     0
 43
0.0
 10
29.46305691206635
 20
87.60962240731714
 10
31.99285763197531
 20
87.60962240731714
  0
LWPOLYLINE
  5
69B
330
1F
100
AcDbEntity
  8
thin line
  6
Continuous
 48
0.005
100
AcDbPolyline
 90
        2
 70
     0
 43
0.0
 10
29.46305691206635
 20
87.54430000865159
 10
31.99338933172476
 20
87.54430000865159
  0
LWPOLYLINE
  5
69E
330
1F
100
AcDbEntity
  8
thin line
  6
Continuous
 48
0.005
100
AcDbPolyline
 90
        2
 70
     0
 43
0.0
 10
35.74492280440882
 20
87.60962240731714
 10
38.22652577464123
 20
87.60962240731714
  0
LWPOLYLINE
  5
69F
330
1F
100
AcDbEntity
  8
thin line
  6
Continuous
 48
0.005
100
AcDbPolyline
 90
        2
 70
     0
 43
0.0
 10
38.75319795584392
 20
87.60962240731714
 10
41.31194142278945
 20
87.60962240731714
  0
LWPOLYLINE
  5
6A1
330
1F
100
AcDbEntity
  8
thin line
  6
Continuous
 48
0.005
100
AcDbPolyline
 90
        2
 70
     0
 43
0.0
 10
35.74491988782984
 20
87.54430000865159
 10
38.22652577464123
 20
87.54430000865159
  0
LWPOLYLINE
  5
6A2
330
1F
100
AcDbEntity
  8
thin line
  6
Continuous
 48
0.005
100
AcDbPolyline
 90
        2
 70
     0
 43
0.0
 10
38.75319795584392
 20
87.54430000865159
 10
41.31194142278945
 20
87.54430000865159
  0
LWPOLYLINE
  5
6AA
330
1F
100
AcDbEntity
  8
thin line
  6
DASHED
 48
0.005
100
AcDbPolyline
 90
        2
 70
     0
 43
0.0
 10
47.88011324885246
 20
76.13061955609373
 10
47.88011324885246
 20
75.3310952980828
  0
LWPOLYLINE
  5
6AB
330
1F
100
AcDbEntity
  8
thin line
  6
DASHED
 48
0.005
100
AcDbPolyline
 90
        2
 70
     0
 43
0.0
 10
47.10227171869473
 20
75.3310952980828
 10
47.88011324885246
 20
75.3310952980828
  0
CIRCLE
  5
6B1
330
1F
100
AcDbEntity
  8
thin line
  6
DASHED
 62
   253
100
AcDbCircle
 10
44.66091515803191
 20
83.03024955080308
 30
0.0
 40
0.2511579950810904
  0
CIRCLE
  5
6B3
330
1F
100
AcDbEntity
  8
thin line
  6
DASHED
 62
   253
100
AcDbCircle
 10
29.19582084259673
 20
78.84875289895536
 30
0.0
 40
0.2511579950810904
  0
CIRCLE
  5
6B4
330
1F
100
AcDbEntity
  8
thin line
  6
DASHED
 62
   253
100
AcDbCircle
 10
26.10708700984242
 20
78.84875289895536
 30
0.0
 40
0.2511579950810904
  0
LWPOLYLINE
  5
6B9
330
1F
100
AcDbEntity
  8
thin line
  6
DASHED
 62
   253
 48
0.005
100
AcDbPolyline
 90
        2
 70
     0
 43
0.0
 10
22.18890991814305
 20
74.12850270448416
 10
23.91438434132351
 20
74.12850270448416
  0
MTEXT
  5
6BA
330
1F
100
AcDbEntity
  8
20th century
100
AcDbMText
 10
24.28815757556595
 20
74.30771772807111
 30
0.0
 40
0.2499999999999787
 41
2.886179872602769
 71
     1
 72
     5
  1
\pt0.003898;{\fTimes New Roman|b0|i0|c0|p18;\C7;Conjectural reconstruction}
 73
     1
 44
1.0
1001
ACAD
1000
ACAD_MTEXT_DEFINED_HEIGHT_BEGIN
1070
    46
1040
0.0
1000
ACAD_MTEXT_DEFINED_HEIGHT_END
  0
LWPOLYLINE
  5
6BB
330
1F
100
AcDbEntity
  8
thin line
  6
DASHED
 48
0.005
100
AcDbPolyline
 90
        2
 70
     0
 43
0.0
 10
22.18890991814305
 20
73.07621614069467
 10
23.91437767720026
 20
73.07621614069467
  0
MTEXT
  5
6BC
330
1F
100
AcDbEntity
  8
20th century
100
AcDbMText
 10
24.28815757556595
 20
73.25543526443016
 30
0.0
 40
0.2499999999999787
 41
2.886179872602769
 71
     1
 72
     5
  1
\pt0.003898;{\fTimes New Roman|b0|i0|c0|p18;\C7;Overhead detail}
 73
     1
 44
1.0
1001
ACAD
1000
ACAD_MTEXT_DEFINED_HEIGHT_BEGIN
1070
    46
1040
0.0
1000
ACAD_MTEXT_DEFINED_HEIGHT_END
  0
LWPOLYLINE
  5
6C4
330
1F
100
AcDbEntity
  8
hatch
  6
Continuous
 48
0.005
100
AcDbPolyline
 90
        7
 70
     1
 43
0.0
 10
34.73097714474722
 20
80.33275963222283
 10
34.7409736443422
 20
80.33276554516527
 10
34.74094074979749
 20
80.35442267216389
 10
34.77049162456731
 20
80.35445757161104
 10
34.77049141236959
 20
80.36445757160654
 10
34.73097714474722
 20
80.36445673312279
 10
34.73097714474722
 20
80.33275963222283
  0
LWPOLYLINE
  5
6C5
330
1F
100
AcDbEntity
  8
hatch
  6
Continuous
 48
0.005
100
AcDbPolyline
 90
        4
 70
     1
 43
0.0
 10
34.72997685686933
 20
80.33275963222283
 10
34.74097714474722
 20
80.33275963222283
 10
34.74097714474722
 20
80.32684771361642
 10
34.72997685686933
 20
80.32684771361642
  0
LWPOLYLINE
  5
6C7
102
{ACAD_REACTORS
330
6CE
102
}
330
1F
100
AcDbEntity
  8
hatch
  6
Continuous
 48
0.005
100
AcDbPolyline
 90
        4
 70
     1
 43
0.0
 10
34.73031822476195
 20
80.30563243560433
 10
34.74097714474722
 20
80.30563243560433
 10
34.74097714474722
 20
80.30037233644188
 10
34.73031822476195
 20
80.30037233644188
  0
LWPOLYLINE
  5
6C8
102
{ACAD_REACTORS
330
6CC
102
}
330
1F
100
AcDbEntity
  8
hatch
  6
Continuous
 48
0.005
100
AcDbPolyline
 90
        4
 70
     1
 43
0.0
 10
34.73097714474722
 20
80.30037233644188
 10
34.74097714474722
 20
80.30037233644188
 10
34.74097714474722
 20
80.2694274254302
 10
34.73097714474722
 20
80.2694274254302
  0
HATCH
  5
6CC
330
1F
100
AcDbEntity
  8
16th century
  6
Continuous
 48
0.005
100
AcDbHatch
 10
0.0
 20
0.0
 30
0.0
210
0.0
220
0.0
230
1.0
  2
SOLID
 70
     1
 71
     0
 91
        1
 92
        1
 93
        6
 72
     1
 10
19.43338585167703
 20
84.68220531208862
 11
20.43303581117527
 21
84.68279660633276
 72
     1
 10
20.43303581117561
 20
84.68279660633289
 11
20.42974635670538
 21
86.84850930619459
 72
     1
 10
20.42974635670498
 20
86.8485093061945
 11
23.38483383368581
 21
86.8519992509103
 72
     1
 10
23.38483383368612
 20
86.85199925091001
 11
23.38481261391422
 21
87.85199925045995
 72
     1
 10
23.38481261391416
 20
87.85199925045981
 11
19.43338585167722
 21
87.8519154020841
 72
     1
 10
19.43338585167703
 20
87.85191540208415
 11
19.43338585167703
 21
84.68220531208826
 97
        0
 75
     0
 76
     1
 98
        1
 10
-3453.664328622748
 20
-7948.59375790951
450
        0
451
        0
460
0.0
461
0.0
452
        1
462
1.0
453
        2
463
0.0
 63
     5
421
      255
463
1.0
 63
     7
421
 16777215
470
LINEAR
1001
ACAD
1010
34.73097714474722
1020
80.2694274254302
1030
0.0
  0
HATCH
  5
6CD
330
1F
100
AcDbEntity
  8
16th century
  6
Continuous
 48
0.005
100
AcDbHatch
 10
0.0
 20
0.0
 30
0.0
210
0.0
220
0.0
230
1.0
  2
SOLID
 70
     1
 71
     0
 91
        1
 92
        1
 93
        4
 72
     1
 10
19.43338585167703
 20
81.44347573399409
 11
20.43338585167746
 21
81.44347573399409
 72
     1
 10
20.43338585167749
 20
81.44347573399409
 11
20.43338585167749
 21
78.34898463282705
 72
     1
 10
20.43338585167749
 20
78.34898463282661
 11
19.43338585167706
 21
78.34898463282661
 72
     1
 10
19.43338585167703
 20
78.34898463282661
 11
19.43338585167703
 21
81.44347573399365
 97
        0
 75
     0
 76
     1
 98
        1
 10
-3453.664328622748
 20
-7948.59375790951
450
        0
451
        0
460
0.0
461
0.0
452
        1
462
1.0
453
        2
463
0.0
 63
     5
421
      255
463
1.0
 63
     7
421
 16777215
470
LINEAR
1001
ACAD
1010
34.73097714474722
1020
80.2694274254302
1030
0.0
  0
HATCH
  5
6CE
330
1F
100
AcDbEntity
  8
19th century
  6
Continuous
 48
0.005
100
AcDbHatch
 10
0.0
 20
0.0
 30
0.0
210
0.0
220
0.0
230
1.0
  2
SOLID
 70
     1
 71
     0
 91
        1
 92
        1
 93
        4
 72
     1
 10
19.33335706388834
 20
84.68220531208862
 11
20.43338585167739
 21
84.68220531208862
 72
     1
 10
20.43338585167749
 20
84.68220531208862
 11
20.43338585167749
 21
84.09101345144859
 72
     1
 10
20.43338585167749
 20
84.0910134514479
 11
19.33335706388843
 21
84.0910134514479
 72
     1
 10
19.33335706388834
 20
84.0910134514479
 11
19.33335706388834
 21
84.68220531208794
 97
        0
 75
     0
 76
     1
 98
        1
 10
-3453.664328622748
 20
-7948.59375790951
450
        0
451
        0
460
0.0
461
0.0
452
        1
462
1.0
453
        2
463
0.0
 63
     5
421
      255
463
1.0
 63
     7
421
 16777215
470
LINEAR
1001
ACAD
1010
34.72997685686933
1020
80.30037233644188
1030
0.0
  0
HATCH
  5
6CF
330
1F
100
AcDbEntity
  8
19th century
  6
Continuous
 48
0.005
100
AcDbHatch
 10
0.0
 20
0.0
 30
0.0
210
0.0
220
0.0
230
1.0
  2
SOLID
 70
     1
 71
     0
 91
        1
 92
        1
 93
        4
 72
     1
 10
19.36749385315079
 20
81.9694856502374
 11
20.43338585167748
 21
81.9694856502374
 72
     1
 10
20.43338585167749
 20
81.9694856502374
 11
20.43338585167749
 21
81.44347573399327
 72
     1
 10
20.43338585167749
 20
81.44347573399409
 11
19.3674938531508
 21
81.44347573399409
 72
     1
 10
19.36749385315079
 20
81.44347573399409
 11
19.36749385315079
 21
81.96948565023822
 97
        0
 75
     0
 76
     1
 98
        1
 10
-3453.664328622748
 20
-7948.59375790951
450
        0
451
        0
460
0.0
461
0.0
452
        1
462
1.0
453
        2
463
0.0
 63
     5
421
      255
463
1.0
 63
     7
421
 16777215
470
LINEAR
1001
ACAD
1010
34.72997685686933
1020
80.30037233644188
1030
0.0
  0
MTEXT
  5
6D5
330
1F
100
AcDbEntity
  8
20th century
100
AcDbMText
 10
31.58685041004856
 20
81.50065643077505
 30
0.0
 40
0.2499999999999787
 41
5.578051922375821
 71
     1
 72
     5
  1
\pt0.003898;{\fTimes New Roman|b0|i0|c0|p18;\C7;Interior not fully surveyed due to comprehensive modern  refitting}
 73
     1
 44
1.0
1001
ACAD
1000
ACAD_MTEXT_DEFINED_HEIGHT_BEGIN
1070
    46
1040
0.0
1000
ACAD_MTEXT_DEFINED_HEIGHT_END
  0
MTEXT
  5
6FF
330
1F
100
AcDbEntity
  8
thin line
100
AcDbMText
 10
43.0918976362741
 20
66.26220895302322
 30
0.0
 40
0.1999999999999829
 41
11.41352088211862
 71
     1
 72
     5
  1
{\fTimes New Roman|b0|i0|c238|p18;Crown Copyright: Royal Commission on the Ancient & Historical Monuments of Wales, 2006\PHawlfraint y Goron: Comisiwn Brenhinol Henebion Cymru, 2006}
 73
     1
 44
1.0
1001
ACAD
1000
ACAD_MTEXT_DEFINED_HEIGHT_BEGIN
1070
    46
1040
0.0
1000
ACAD_MTEXT_DEFINED_HEIGHT_END
  0
LWPOLYLINE
  5
73A
330
1F
100
AcDbEntity
  8
thin outline
  6
Continuous
 48
0.005
100
AcDbPolyline
 90
        3
 70
     0
 43
0.0
 10
33.98223920474636
 20
74.08937468944609
 10
33.49645886647191
 20
73.18783047597207
 10
32.95297718808282
 20
73.32866495471904
  0
LWPOLYLINE
  5
742
330
1F
100
AcDbEntity
  8
thin outline
  6
Continuous
 48
0.005
100
AcDbPolyline
 90
        3
 70
     0
 43
0.0
 10
32.56722557577635
 20
70.82745329106728
 10
33.42714461904962
 20
73.02804570623533
 10
32.95297718808282
 20
73.32866495471904
  0
LWPOLYLINE
  5
743
330
1F
100
AcDbEntity
  8
thin outline
  6
Continuous
 48
0.005
100
AcDbPolyline
 90
        3
 70
     0
 43
0.0
 10
33.98223920474636
 20
74.08937468944609
 10
33.65584987972731
 20
73.11868703916093
 10
34.1300173106941
 20
72.81806779067721
  0
LWPOLYLINE
  5
744
330
1F
100
AcDbEntity
  8
thin outline
  6
Continuous
 48
0.005
100
AcDbPolyline
 90
        3
 70
     0
 43
0.0
 10
32.56722557577634
 20
70.8274532910673
 10
33.58653563230501
 20
72.9589022694242
 10
34.1300173106941
 20
72.81806779067721
  0
LWPOLYLINE
  5
746
330
1F
100
AcDbEntity
  8
thin outline
  6
Continuous
 48
0.005
100
AcDbPolyline
 90
        2
 70
     0
 43
0.0
 10
33.98223920474636
 20
74.08937468944609
 10
33.88742195942509
 20
74.13050618159599
  0
LWPOLYLINE
  5
748
330
1F
100
AcDbEntity
  8
thin outline
  6
Continuous
 48
0.005
100
AcDbPolyline
 90
        2
 70
     0
 43
0.0
 10
33.88742195942509
 20
74.13050618159599
 10
34.07061419423224
 20
74.29496747728214
  0
LWPOLYLINE
  5
749
330
1F
100
AcDbEntity
  8
thin outline
  6
Continuous
 48
0.005
100
AcDbPolyline
 90
        2
 70
     0
 43
0.0
 10
33.98087465496383
 20
74.08996662784798
 10
34.07569190028512
 20
74.04883513569808
  0
LWPOLYLINE
  5
74A
330
1F
100
AcDbEntity
  8
thin outline
  6
Continuous
 48
0.005
100
AcDbPolyline
 90
        2
 70
     0
 43
0.0
 10
34.07569190028512
 20
74.04883513569808
 10
34.07061419423224
 20
74.29496747728214
  0
MTEXT
  5
750
330
1F
100
AcDbEntity
  8
thin outline
  6
Continuous
 48
0.005
100
AcDbMText
 10
33.98100256128433
 20
74.69780458119647
 30
0.0
 40
0.2499999999999787
 41
0.6615682341989242
 71
     1
 72
     5
  1
{\fTimes New Roman|b0|i0|c238|p18;N}
 73
     1
 44
1.0
  0
ENDSEC
  0
SECTION
  2
OBJECTS
  0
DICTIONARY
  5
C
330
0
100
AcDbDictionary
281
     1
  3
ACAD_COLOR
350
73
  3
ACAD_GROUP
350
D
  3
ACAD_IMAGE_DICT
350
5BE
  3
ACAD_IMAGE_VARS
350
5C5
  3
ACAD_LAYOUT
350
1A
  3
ACAD_MATERIAL
350
72
  3
ACAD_MLINESTYLE
350
17
  3
ACAD_PLOTSETTINGS
350
19
  3
ACAD_PLOTSTYLENAME
350
E
  3
ACAD_TABLESTYLE
350
86
  3
AcDbVariableDictionary
350
66
  0
DICTIONARY
  5
90
330
2
100
AcDbDictionary
280
     1
281
     1
  3
ACAD_LAYERFILTERS
360
57F
  3
ACAD_LAYERSTATES
360
91
  3
ACLYDICTIONARY
360
57E
  0
DICTIONARY
  5
2E6
330
1F
100
AcDbDictionary
280
     1
281
     1
  3
ACAD_SORTENTS
360
2E7
  0
DICTIONARY
  5
587
330
586
100
AcDbDictionary
280
     1
281
     1
  3
ACAD_SORTENTS
360
588
  0
IMAGEDEF_REACTOR
  5
59E
330
59D
100
AcDbRasterImageDefReactor
 90
        2
330
59D
  0
IMAGEDEF_REACTOR
  5
5A0
330
59F
100
AcDbRasterImageDefReactor
 90
        2
330
59F
  0
DICTIONARY
  5
73
102
{ACAD_REACTORS
330
C
102
}
330
C
100
AcDbDictionary
281
     1
  0
DICTIONARY
  5
D
102
{ACAD_REACTORS
330
C
102
}
330
C
100
AcDbDictionary
281
     1
  0
DICTIONARY
  5
5BE
102
{ACAD_REACTORS
330
C
102
}
330
C
100
AcDbDictionary
281
     1
  3
Assembly logo
350
5BF
  3
RCAHMW logo
350
5C0
  0
RASTERVARIABLES
  5
5C5
102
{ACAD_REACTORS
330
C
102
}
330
C
100
AcDbRasterVariables
 90
        0
 70
     1
 71
     1
 72
     5
  0
DICTIONARY
  5
1A
102
{ACAD_REACTORS
330
C
102
}
330
C
100
AcDbDictionary
281
     1
  3
Layout1
350
59
  3
Layout2
350
5E
  3
Model
350
22
  0
DICTIONARY
  5
72
102
{ACAD_REACTORS
330
C
102
}
330
C
100
AcDbDictionary
281
     1
  0
DICTIONARY
  5
17
102
{ACAD_REACTORS
330
C
102
}
330
C
100
AcDbDictionary
281
     1
  3
Standard
350
18
  0
DICTIONARY
  5
19
102
{ACAD_REACTORS
330
C
102
}
330
C
100
AcDbDictionary
281
     1
  3
Setup1
350
5FA
  0
ACDBDICTIONARYWDFLT
  5
E
102
{ACAD_REACTORS
330
C
102
}
330
C
100
AcDbDictionary
281
     1
  3
Normal
350
F
100
AcDbDictionaryWithDefault
340
F
  0
DICTIONARY
  5
86
102
{ACAD_REACTORS
330
C
102
}
330
C
100
AcDbDictionary
281
     1
  3
Standard
350
87
  0
DICTIONARY
  5
66
102
{ACAD_REACTORS
330
C
102
}
330
C
100
AcDbDictionary
281
     1
  3
CTABLESTYLE
350
1FE
  3
DIMASSOC
350
67
  3
HIDETEXT
350
6B
  0
DICTIONARY
  5
57F
102
{ACAD_REACTORS
330
90
102
}
330
90
100
AcDbDictionary
281
     1
  0
DICTIONARY
  5
91
102
{ACAD_REACTORS
330
90
102
}
330
90
100
AcDbDictionary
281
     1
  0
DICTIONARY
  5
57E
102
{ACAD_REACTORS
330
90
102
}
330
90
100
AcDbDictionary
281
     1
1001
ACAD
1000
<All
  0
SORTENTSTABLE
  5
2E7
102
{ACAD_REACTORS
330
2E6
102
}
330
2E6
100
AcDbSortentsTable
330
1F
331
6C7
  5
6CE
331
131
  5
169
331
139
  5
174
331
2B0
  5
382
331
1AB
  5
2DE
331
16C
  5
1AC
331
32E
  5
3B9
331
1BB
  5
2F3
331
17C
  5
1B7
331
2FF
  5
18E
331
375
  5
14B
331
4D9
  5
50B
331
184
  5
1BC
331
307
  5
143
331
33E
  5
3D8
331
61D
  5
624
331
5C6
  5
5CB
331
540
  5
568
331
625
  5
62A
331
5CE
  5
5D3
331
5D6
  5
5E1
331
550
  5
529
331
482
  5
4F0
331
631
  5
650
331
690
  5
69F
331
698
  5
69B
331
6CF
  5
137
331
651
  5
675
331
1C3
  5
302
331
18C
  5
1C6
331
291
  5
365
331
155
  5
195
331
194
  5
221
331
30F
  5
176
331
34E
  5
3D9
331
1D3
  5
323
331
299
  5
374
331
41B
  5
493
331
501
  5
13D
331
521
  5
53D
331
38D
  5
401
331
366
  5
159
331
568
  5
572
331
529
  5
54F
331
570
  5
5C9
331
453
  5
4AF
331
4D2
  5
38C
331
616
  5
61D
331
679
  5
68F
331
132
  5
16D
331
13A
  5
177
331
23A
  5
352
331
16D
  5
1AD
331
2F8
  5
3A8
331
175
  5
1B1
331
36E
  5
38D
331
282
  5
361
331
1BC
  5
2F4
331
300
  5
18F
331
4DA
  5
50C
331
3F4
  5
453
331
185
  5
1BD
331
213
  5
33F
331
61E
  5
625
331
5C7
  5
5CC
331
3FC
  5
47B
331
4F2
  5
523
331
626
  5
62B
331
5CF
  5
5D4
331
3B5
  5
434
331
47B
  5
4EA
331
5D7
  5
5E3
331
551
  5
52A
331
483
  5
4F1
331
632
  5
66C
331
6C8
  5
6CF
331
699
  5
6A1
331
6A1
  5
6B1
331
18D
  5
1C7
331
14E
  5
187
331
195
  5
226
331
156
  5
196
331
310
  5
148
331
34F
  5
13E
331
318
  5
15B
331
41C
  5
494
331
5E7
  5
613
331
3CD
  5
451
331
38E
  5
410
331
434
  5
300
331
44C
  5
49B
331
60F
  5
617
331
571
  5
5CA
331
617
  5
61E
331
6B1
  5
6BA
331
6B9
  5
6C0
331
16E
  5
1AE
331
2F1
  5
160
331
330
  5
3AF
331
176
  5
1B2
331
1BD
  5
2F8
331
17E
  5
1B8
331
301
  5
191
331
4DB
  5
51E
331
214
  5
340
331
186
  5
1BE
331
5C8
  5
5CD
331
5D0
  5
5D5
331
62F
  5
648
331
5D8
  5
5E7
331
552
  5
52D
331
69A
  5
69E
331
6A2
  5
6B3
331
6AA
  5
6B4
331
2D2
  5
38E
331
18E
  5
1C8
331
14F
  5
188
331
293
  5
366
331
196
  5
228
331
157
  5
197
331
350
  5
13F
331
319
  5
392
331
19E
  5
2BD
331
503
  5
526
331
387
  5
150
331
360
  5
3DC
331
2EA
  5
3A7
331
1E5
  5
331
331
435
  5
301
331
38F
  5
14C
331
562
  5
139
331
673
  5
67B
331
67B
  5
690
331
6BA
  5
6C1
331
683
  5
699
331
134
  5
16E
331
144
  5
17D
331
331
  5
3B0
331
177
  5
1B3
331
1BE
  5
2FA
331
302
  5
194
331
3A7
  5
14E
331
187
  5
1BF
331
215
  5
341
331
5C9
  5
5CE
331
543
  5
569
331
3AF
  5
432
331
475
  5
4B9
331
628
  5
62F
331
5D1
  5
5D6
331
5D9
  5
60C
331
553
  5
532
331
69B
  5
6A2
331
66C
  5
676
331
6AB
  5
6B9
331
1C6
  5
306
331
18F
  5
1C9
331
150
  5
189
331
1CE
  5
310
331
197
  5
293
331
158
  5
199
331
351
  5
32E
331
31A
  5
393
331
5E1
  5
612
331
361
  5
15A
331
524
  5
540
331
4A5
  5
505
331
390
  5
155
331
52C
  5
552
331
44E
  5
4A5
331
534
  5
55F
331
6B3
  5
6BB
331
67C
  5
698
331
6BB
  5
6C4
331
135
  5
171
331
13D
  5
178
331
2F3
  5
353
331
145
  5
17E
331
1AF
  5
2E5
331
27D
  5
360
331
2FB
  5
15F
331
2C4
  5
387
331
180
  5
1B9
331
3F7
  5
459
331
3A8
  5
14F
331
2CC
  5
38B
331
5CA
  5
5CF
331
544
  5
56D
331
3B0
  5
14D
331
629
  5
630
331
5D2
  5
5D7
331
5DA
  5
60F
331
554
  5
13A
331
66D
  5
679
331
188
  5
1C0
331
1C7
  5
30F
331
190
  5
1CE
331
226
  5
34F
331
198
  5
296
331
159
  5
19A
331
1CF
  5
314
331
352
  5
140
331
29D
  5
375
331
161
  5
19E
331
505
  5
13C
331
323
  5
3B5
331
525
  5
541
331
3D8
  5
14A
331
56C
  5
5C7
331
52D
  5
553
331
399
  5
156
331
612
  5
61A
331
535
  5
561
331
675
  5
67C
331
6B4
  5
6BC
331
6BC
  5
6C5
331
6C4
  5
6CC
331
13E
  5
179
331
2F4
  5
35C
331
1B0
  5
2E8
331
146
  5
182
331
171
  5
1AF
331
179
  5
1B5
331
2BD
  5
384
331
181
  5
1BA
331
304
  5
15C
331
33B
  5
3C1
331
61A
  5
622
331
3F8
  5
475
331
622
  5
626
331
5CB
  5
5D0
331
410
  5
482
331
62A
  5
631
331
5D3
  5
5D8
331
4FE
  5
524
331
3B9
  5
435
331
555
  5
535
331
6CC
  5
134
331
1C0
  5
2FB
331
14A
  5
185
331
2D5
  5
390
331
152
  5
18B
331
191
  5
1CF
331
2DD
  5
394
331
1D0
  5
318
331
199
  5
297
331
296
  5
36A
331
353
  5
141
331
3C1
  5
44C
331
382
  5
158
331
162
  5
1A2
331
1A1
  5
2C4
331
5E3
  5
138
331
363
  5
3DD
331
2AE
  5
37C
331
392
  5
411
331
56D
  5
5C8
331
39A
  5
157
331
3E1
  5
147
331
613
  5
61B
331
676
  5
683
331
6C5
  5
6CD
331
13F
  5
17A
331
1B1
  5
2EA
331
147
  5
184
331
172
  5
1B0
331
1B9
  5
2F0
331
200
  5
33D
331
182
  5
1BB
331
33C
  5
3CB
331
61B
  5
623
331
623
  5
628
331
411
  5
483
331
5CC
  5
5D1
331
62B
  5
632
331
4FF
  5
525
331
5D4
  5
5D9
331
6CD
  5
135
331
69E
  5
6AA
331
18A
  5
1C4
331
14B
  5
186
331
192
  5
1D0
331
30D
  5
175
331
2DE
  5
3A4
331
297
  5
36E
331
228
  5
350
331
1D1
  5
319
331
19A
  5
299
331
15B
  5
19C
331
230
  5
351
331
1A2
  5
2D5
331
163
  5
1A4
331
35C
  5
3DA
331
38B
  5
3F8
331
393
  5
41B
331
60C
  5
616
331
451
  5
4AA
331
68F
  5
69A
331
1E9
  5
33C
331
16B
  5
1AB
331
374
  5
3EC
331
17B
  5
1B6
331
201
  5
33E
331
459
  5
145
331
33D
  5
3CD
331
306
  5
144
331
37C
  5
3F4
331
53F
  5
567
331
624
  5
629
331
5CD
  5
5D2
331
5D5
  5
5DA
331
54F
  5
528
331
630
  5
651
331
648
  5
66D
331
6CE
  5
136
331
650
  5
673
331
69F
  5
6AB
331
288
  5
363
331
1C2
  5
2FF
331
18B
  5
1C5
331
221
  5
34E
331
154
  5
18D
331
193
  5
200
331
30E
  5
13B
331
19B
  5
29D
331
15C
  5
19D
331
355
  5
142
331
384
  5
3F7
331
1A3
  5
2DD
331
164
  5
1A6
331
1E2
  5
330
331
55F
  5
56E
331
520
  5
527
331
432
  5
498
331
38C
  5
3FC
331
3CB
  5
44E
331
365
  5
3E1
331
567
  5
571
331
394
  5
41C
331
528
  5
544
  0
SORTENTSTABLE
  5
588
102
{ACAD_REACTORS
330
587
102
}
330
587
100
AcDbSortentsTable
330
586
  0
IMAGEDEF
  5
5BF
102
{ACAD_REACTORS
330
59E
330
5BE
102
}
330
5BE
100
AcDbRasterImageDef
 90
        0
  1
E:\Share\All\SURVEY BRANCH\Templates\LOGOS\Assembly logo.tif
 10
8016.0
 20
2570.0
 11
0.0211666666666667
 21
0.0211666666666667
280
     1
281
     5
  0
IMAGEDEF
  5
5C0
102
{ACAD_REACTORS
330
5A0
330
5BE
102
}
330
5BE
100
AcDbRasterImageDef
 90
        0
  1
E:\Share\All\SURVEY BRANCH\Templates\LOGOS\RCAHMW logo.tif
 10
4120.0
 20
5032.0
 11
0.0208333333333333
 21
0.0208333333333333
280
     1
281
     2
  0
LAYOUT
  5
59
102
{ACAD_REACTORS
330
1A
102
}
330
1A
100
AcDbPlotSettings
  1

  2
None
  4

  6

 40
0.0
 41
0.0
 42
0.0
 43
0.0
 44
0.0
 45
0.0
 46
0.0
 47
0.0
 48
0.0
 49
0.0
140
0.0
141
0.0
142
1.0
143
1.0
 70
   688
 72
     0
 73
     0
 74
     5
  7

 75
    16
147
1.0
 76
     0
 77
     2
 78
   300
148
0.0
149
0.0
100
AcDbLayout
  1
Layout1
 70
     1
 71
     1
 10
0.0
 20
0.0
 11
12.0
 21
9.0
 12
0.0
 22
0.0
 32
0.0
 14
0.0
 24
0.0
 34
0.0
 15
0.0
 25
0.0
 35
0.0
146
0.0
 13
0.0
 23
0.0
 33
0.0
 16
1.0
 26
0.0
 36
0.0
 17
0.0
 27
1.0
 37
0.0
 76
     0
330
58
  0
LAYOUT
  5
5E
102
{ACAD_REACTORS
330
1A
102
}
330
1A
100
AcDbPlotSettings
  1

  2
None
  4

  6

 40
0.0
 41
0.0
 42
0.0
 43
0.0
 44
0.0
 45
0.0
 46
0.0
 47
0.0
 48
0.0
 49
0.0
140
0.0
141
0.0
142
1.0
143
1.0
 70
   688
 72
     0
 73
     0
 74
     5
  7

 75
    16
147
1.0
 76
     0
 77
     2
 78
   300
148
0.0
149
0.0
100
AcDbLayout
  1
Layout2
 70
     1
 71
     2
 10
0.0
 20
0.0
 11
12.0
 21
9.0
 12
0.0
 22
0.0
 32
0.0
 14
0.0
 24
0.0
 34
0.0
 15
0.0
 25
0.0
 35
0.0
146
0.0
 13
0.0
 23
0.0
 33
0.0
 16
1.0
 26
0.0
 36
0.0
 17
0.0
 27
1.0
 37
0.0
 76
     0
330
5D
  0
LAYOUT
  5
22
102
{ACAD_REACTORS
330
1A
102
}
330
1A
100
AcDbPlotSettings
  1

  2
none_device
  4
ANSI_A_(8.50_x_11.00_Inches)
  6

 40
6.349999904632568
 41
19.04999923706055
 42
6.350006103515625
 43
19.04998779296875
 44
215.8999938964844
 45
279.3999938964844
 46
0.0
 47
0.0
 48
0.0
 49
0.0
140
0.0
141
0.0
142
1.0
143
2.584895464708373
 70
 11952
 72
     0
 73
     1
 74
     0
  7

 75
     0
147
0.3868628397755418
 76
     0
 77
     2
 78
   300
148
0.0
149
0.0
100
AcDbLayout
  1
Model
 70
     1
 71
     0
 10
0.0
 20
0.0
 11
12.0
 21
9.0
 12
0.0
 22
0.0
 32
0.0
 14
0.0
 24
0.0
 34
0.0
 15
0.0
 25
0.0
 35
0.0
146
0.0
 13
0.0
 23
0.0
 33
0.0
 16
1.0
 26
0.0
 36
0.0
 17
0.0
 27
1.0
 37
0.0
 76
     0
330
1F
  0
MLINESTYLE
  5
18
102
{ACAD_REACTORS
330
17
102
}
330
17
100
AcDbMlineStyle
  2
STANDARD
 70
     0
  3

 62
   256
 51
90.0
 52
90.0
 71
     2
 49
0.5
 62
   256
  6
BYLAYER
 49
-0.5
 62
   256
  6
BYLAYER
  0
PLOTSETTINGS
  5
5FA
102
{ACAD_REACTORS
330
19
102
}
330
19
100
AcDbPlotSettings
  1
Setup1
  2
\\IT155\GIS CP1700
  4
A3
  6

 40
6.000750064849853
 41
13.3667459487915
 42
6.043060302734375
 43
3.84173583984375
 44
296.9683227539062
 45
419.9889831542968
 46
-6.037743806837511
 47
-8.609749317170042
 48
34.67089646903988
 49
80.13658074073919
140
35.09089646903988
141
80.43358074073919
142
1000.0
143
1.0
 70
 11940
 72
     1
 73
     1
 74
     4
  7

 75
     0
147
959.0011937277619
 76
     0
 77
     2
 78
   300
148
-34.67089646903988
149
-80.13658074073919
1001
ACAD_PSEXT
1000
\\IT155\GIS CP1700
1000
HP Color Inkjet CP1700 (HPA)
1000
Tom and Vinces room
1000

1070
     0
  0
ACDBPLACEHOLDER
  5
F
102
{ACAD_REACTORS
330
E
102
}
330
E
  0
TABLESTYLE
  5
87
102
{ACAD_REACTORS
330
86
102
}
330
86
100
AcDbTableStyle
  3
Standard
 70
     0
 71
     0
 40
0.06
 41
0.06
280
     0
281
     0
  7
Standard
140
0.18
170
     2
 62
     0
 63
     7
283
     0
274
    -2
284
     1
 64
     0
275
    -2
285
     1
 65
     0
276
    -2
286
     1
 66
     0
277
    -2
287
     1
 67
     0
278
    -2
288
     1
 68
     0
279
    -2
289
     1
 69
     0
  7
Standard
140
0.25
170
     5
 62
     0
 63
     7
283
     0
274
    -2
284
     1
 64
     0
275
    -2
285
     1
 65
     0
276
    -2
286
     1
 66
     0
277
    -2
287
     1
 67
     0
278
    -2
288
     1
 68
     0
279
    -2
289
     1
 69
     0
  7
Standard
140
0.18
170
     5
 62
     0
 63
     7
283
     0
274
    -2
284
     1
 64
     0
275
    -2
285
     1
 65
     0
276
    -2
286
     1
 66
     0
277
    -2
287
     1
 67
     0
278
    -2
288
     1
 68
     0
279
    -2
289
     1
 69
     0
  0
DICTIONARYVAR
  5
1FE
102
{ACAD_REACTORS
330
66
102
}
330
66
100
DictionaryVariables
280
     0
  1
STANDARD
  0
DICTIONARYVAR
  5
67
102
{ACAD_REACTORS
330
66
102
}
330
66
100
DictionaryVariables
280
     0
  1
2
  0
DICTIONARYVAR
  5
6B
102
{ACAD_REACTORS
330
66
102
}
330
66
100
DictionaryVariables
280
     0
  1
1
  0
ENDSEC
  0
EOF
